Song name
# A B C D E F G H I J K L M N O P Q R S T U V W X Y Z

Starfield - Remain tab

Here are the leads for this song.

Tabbed by Brandon Bushnell
Tuning (EADBGE)


Intro
E|-------------------------|
B|--7------5------3~-------|
G|--------------------4----|
D|-----7------5------------|
A|-------------------------|
E|-------------------------|


Verse
 Follow rhythm of song
E|---12--10----9----|
B|---X----X----X----|
G|---9----7----6----|
D|------------------|
A|------------------|
E|------------------|


 Chorus
 Follow rhythm of song
E|----3-----X------X------X---|
B|----3-----3------2------3---|
G|----0-----0------2------0---|
D|----0-----0------2------0---|
A|----2-----X------X------X---|
E|----3-----2------X------2---|


Follow rhythm of song
E|---10--10---12-----10----|
B|---8----7---10-----8-----|
G|---7----7----9-----7-----|
D|-------------------------|
A|-------------------------|
E|-------------------------|

Thats it have fun
Tap to rate this tab
# A B C D E F G H I J K L M N O P Q R S T U V W X Y Z