Song name
# A B C D E F G H I J K L M N O P Q R S T U V W X Y Z

Starflyer 59 - Zenith tab

Help us improve GuitareTab! Take a short survey!
Starflyer 59 - "The Zenith"
Drop-D

 (heavy dist.)
e|-------------------------------------------------|
b|-------------------------------------------------|
g|-------------12-12-12-12-------------------------| x4
d|-12-12-12-12-12-12-12-12-12-12-12-12-10-10-10-10-|
a|-12-12-12-12-10-10-10-10-12-12-12-12-10-10-10-10-|
d|-12-12-12-12-10-10-10-10-12-12-12-12-10-10-10-10-|

  (light chorus effect)
|--------0--------------0---|
|--------4--------------4---|
|--------3----------4---3---| x2
|-4-5----0----0h4-------0---|
|---------------------------|
|---------------------------|

Verse: one chord. G6(0000xx) with chorus effect.

[G6 repeated]
There she goes under blue skies she swirls by, there you
go on the blue side she's on your side I know the low is
moving, and there you go under blue skies she swirls by

intro x1

Outro:
  (chorus effect)
|-0--0/3--3----1-0------0/7--7-3--|x36
|---------------------------------|
|---------------------------------|
|---------------------------------|
|---------------------------------|
|---------------------------------|


  (heavy dist.)
|---------------------------------|x34
|---------------------------------|
|---------------------------------|
|-0-0-0-0-0-0-0-0-0-0-0-0-0-0-0-0-|
|-0-0-0-0-0-0-0-0-2-2-2-2-3-3-3-3-|
|-3-3-3-3-3-3-3-3-0-0-0-0-2-2-2-2-|
Related for Zenith tab