Starfucker - Rawnald Gregory Erickson The Second tab

Intro: (Repeat until Bridge)
E----------------------------------------------------|
B----------------------------------------------------|
G----------------------------------------------------|
D------------------------12-----------------------12-|
A-14-12-14-12-14-12-13-14--14-12-14-12-14-12-13-14---|
E----------------------------------------------------|

Bridge:
E -7-7-7-7-7-7-7-7-7-7-7-7-9--9--9--9--9--9-7-7-7--10-10-10-9--9--9--10-10-10--|
B -8-8-8-8-8-8-8-8-8-8-8-8-10-10-10-10-10-10-8-8-8-10-10-10-10-10-10-10-10-10--|
G -7-7-7-7-7-7-7-7-7-7-7-7-9--9--9--9--9--9-7-7-7--9--9--9--9--9--9--9--9--9---|
D -----------------------------------------------------------------------------|
A------------------------------------------------------------------------------|
E------------------------------------------------------------------------------|
Tap to rate this tab
 
# A B C D E F G H I J K L M N O P Q R S T U V W X Y Z