Song name
# A B C D E F G H I J K L M N O P Q R S T U V W X Y Z

Starfucker - Rawnald Gregory Erickson The Second tab

1st Guitar:

e----------------------------------------------------|
B----------------------------------------------------|
G----------------------------------------------------|
D-----------------------12----------------------12---|
A-14-12-14-12-14-12-14----14-12-14-12-14-12-14-------|
E----------------------------------------------------|

e---------------------------------------------------|
B---------------------------------------------------|
G---------------------------------------------------|
D-----------------------12---------------------12---|
A-14-12-14-12-14-12-14----14-12-14-12-14h15-14---14-|
E---------------------------------------------------|

e--------------------------------------------------|
B--------------------------------------------------|
G--------------------------------------------------|
D--------------------12----------------------------|
A-12-14-12-14h15-14--------------------------------|
E--------------------------------------------------|


2nd Guitar:

e----------------------------------------------------|
B----------------------------------------------------|
G----------------------------------------------------|
D-------------------------------------------0-00-----|
A-------------------------2-22--2-22-----------------|
E-3-33--3-33--3-33--3-33--------------0-00-----------|

e---------------------------------------------------|
B---------------------------------------------------|
G---------------------------------------------------|
D---------------------------------------------------|
A-0-00--3-33----------------------------------------|
E---------------------------------------------------|


If you want to play 2nd guitar on bass just play up 12 frets on every note (or capo, but 
I've never seen a bass capoed). Maybe I'm wrong about this but my guitar is matching up 
nicely with the song.




It's really a very simple song. Except for the bridge I can't figure out two of the 
chords but I'll try to post them if I figure it out.
Tap to rate this tab
 
# A B C D E F G H I J K L M N O P Q R S T U V W X Y Z