Starfucker - Born chords

Highlighted       Show chord diagrams
No need for capo.

(Strum) Intro and most of song:


  D   Em  A   G G
e|2---3---3---3-3-|
B|3---0---2---0-3-|
G|2---0---2---0-0-|
D|0---2---2---0-0-|
A|----2---0---2-2-|
E|----0-------3-3-|


(Strum) B Section:

  A   Em  A   Em  A   Em  G -> 
e|0---0---0---0---0---0---3-------|
B|0h2-0---0h2-0---0h2-0---3-------|
G|2---0---2---0---2---0---0-------|
D|2---2---2---2---2---2---0-------|
A|0---2---0---2---0---2---2-------|
E|----0-------0-------0---3-------|
Tap to rate this tab
 
# A B C D E F G H I J K L M N O P Q R S T U V W X Y Z