Song name
# A B C D E F G H I J K L M N O P Q R S T U V W X Y Z

Starfucker - Rawnald Gregory Erickson The Second tab

No one has tabbed the breakdown yet, so I did it.


-----------------------------------------------------------------------------
			     Ronald Gregory Erickson the Second - Starfucker
-----------------------------------------------------------------------------
Tabbed by: Matt Graves (The Kitsch)
Email:

Tuning: Standard

e|----7-7-7---7-7-7---7-7-7---7-7-7-----7-7--7-----7-7--7-------------------|
B|---8--8-8--8--8-8--8--8-8--8--8-8---10--10-10--10--10-10------------------|
G|--------------------------------------------------------------------------|
D|--------------------------------------------------------------------------|
A|--------------------------------------------------------------------------|
E|--------------------------------------------------------------------------|

e|----7-7-7----10-10-10---7--7--7-----10-10-10-----7-7-7--------------------|
B|---8--8-8---12--12-12--10--10-10---12--12-12----8--8-8--------------------|
G|--------------------------------------------------------------------------|
D|--------------------------------------------------------------------------|
A|--------------------------------------------------------------------------|
E|--------------------------------------------------------------------------|

Then it just repeats. And for the last time you play it, you don't play the last part, the G.
Tap to rate this tab
# A B C D E F G H I J K L M N O P Q R S T U V W X Y Z