Song name
# A B C D E F G H I J K L M N O P Q R S T U V W X Y Z

Starfucker - Millions tab

Millions by Starfucker:
My first tab. This song is fun and its like should be in the MILLIONS! Get it? Name of 
the song? Hehe ahh...


Intro:

Lead:
e|-----------------------------------||--------------------------------------|
B|-4-2-----2-------------------------||-4-2-----2----------------------------|
G|-----3-1---3-1---4-3-1---3-1-------||-----3-1---3-1---4-3-1---3-1----------|
D|---------------4-------4-----4-1---||---------------4-------4-----4--------|
A|-----------------------------------||--------------------------------------|
E|-----------------------------------||--------------------------------------|


Rhythm:
e|---------------------------------------------------------------------------|
B|-----------------------------------------2---------------------------------|
G|--------------3--------1-----------------------1-------3-------------------|
D|-4------1--------------------4------1--------------------------------------|
A|-------------------4-------------------------------------------------------|
E|---------------------------------------------------------------------------|

Verse:

Vocal Harmony:
e|---------------------------------------------------------------------------|
B|-4-2--------------4-2------------------------------------------------------|
G|------3-3-1-----------3-3-1------------------------------------------------|
D|------------4-1--------------4s6-------------------------------------------|
A|---------------------------------------------------------------------------|
E|---------------------------------------------------------------------------|
Tap to rate this tab
# A B C D E F G H I J K L M N O P Q R S T U V W X Y Z