Song name
# A B C D E F G H I J K L M N O P Q R S T U V W X Y Z

Starfucker - Say To You tab

                             -Say To You-
Tabbed by:Sexton Blake

Tuning:eadgbe

e|---------------------------------------------------------------------------|
B|---------------------------------------------------------------------------|
G|-14----------10----------3----------2---------5--------3--------2----------|
D|-----X12---------X4---------x12----------x4------x12------x4-------x12-----|
A|-12----------8-----------2----------1---------3--------2--------1----------|
E----------------------------------------------------------------------------|


e|----------------------------------------------------------------------------|
B|----------------------------------------------------------------------------|
G|--5--------10---------------------------------------------------------------|
D|-----X2---------x2----------------------------------------------------------|
A|--3--------8----------------------------------------------------------------|
E|----------------------------------------------------------------------------|

And just keep repeating from the top. Figuring out the rhythm isn't very hard.
Feel free to message me if you have questions :)
Tap to rate this tab
 
# A B C D E F G H I J K L M N O P Q R S T U V W X Y Z