Guitaretab - guitar tabs
Song name
# A B C D E F G H I J K L M N O P Q R S T U V W X Y Z

Starfucker - While Im Alive tab

Band: STRFKR
Song: While I'm Alive

Standard tuning

This is my first guitar tab, but sounds just about dead on, and I got a little help from a video.

Pretty simple tab, but hope you enjoy!

Intro/Verse:

e|----------------------|
b|----------------------|
g|----------5--5--------|
d|----5h6h7--7--75------|
a|----------------------|
e|----------------------|

*h = hammer on

Alternative Intro/Verse:
This is the lead synth riff in case you want to play something else (I also find it 
easier to sing to this one)
[ Tab from: http://www.guitaretab.com/s/starfucker/357904.html ]
e|---------------------------------------------------------|
b|--------8-------------------------8----------------------|
g|------9--975-55--7/97---------=9--975-55544--------------|
d|----7-----------7------(x3)----7-------------7--(x1)-----|
a|---------------------------------------------------------|
e|---------------------------------------------------------|

Pre-Chorus/Chorus:

strumming: dud-d-d

e|----13-13-13--12--10------|
b|----13-13-13--12--10------|
g|----14-14-14--12--10------|
d|--------------------------|
a|--------------------------|
e|--------------------------|

Note: Sometimes I'll add a mute and one more quick 10 chord at the end of even repetitions.

Bridge:

e|---------------------------|
b|---------------------------|
g|-----------5---75----------|
d|----5h7-77--77---7-55------|
a|---------------------------|
e|---------------------------|

And then another few repetitions of the verse finish the song off.
Related for While Im Alive tab
While Im Alive chords by Starfucker