Song name
# A B C D E F G H I J K L M N O P Q R S T U V W X Y Z

Starfucker - Astoria tab

Tabbed by: Sexton Blake

Tuning: Standard
*The bass riff
e|------------------------------------------------------------------------------|
B|------------------------------------------------------------------------------|
G|------------------------------------------------------------------------------|
D|------------------------------------------------------------------------------|
A|-------9---9---9----9(repeat as needed)-----9(b)----9(b)------4----4----4-----|
E|----7----7----7---7---------------------5-------5----------2----2----2--------|

e|----------------------------------------------------------------------------|
B|----------------------------------------------------------------------------|
G|----------------------------------------------------------------------------|
D|----------------------------------------------------------------------------|
A|-----4----4(repeat as needed)------2-------2--------------------------------|
E|--2----2-----------------------2--------2-----------------------------------|

*Rhythm guitar that begins at 0:16
e|----------------------------------------------------------------------------|
B|----------------------------------------------------------------------------|
G|----------------------------------------------------------------------------|
D|-14--------11--------12-----------------------------------------------------|
A|-----(x15)-----(x15)-----(x4)-----------------------------------------------|
E|-12--------9---------10-----------------------------------------------------|

*Second guitar that begins at 1:33
e|---------5--------5--------------------------------------------------------|
B|--5(h)7-----5(h)7----7--9---(This repeats until the song ends)-------------|
G|---------------------------------------------------------------------------|
D|---------------------------------------------------------------------------|
A|---------------------------------------------------------------------------|
E|---------------------------------------------------------------------------|
Tap to rate this tab
# A B C D E F G H I J K L M N O P Q R S T U V W X Y Z