Song name
# A B C D E F G H I J K L M N O P Q R S T U V W X Y Z

Starfucker - Rawnald Gregory Erickson The Second tab

Main Riff:

e---------------------------------------------------|
B---------------------------------------------------|
G---------------------------------------------------|
D-----------------------12----------------------12--|
A-14-12-14-12-14-12-14----14-12-14-12-14-12-14------|
E---------------------------------------------------|

e---------------------------------------------------|
B---------------------------------------------------|
G---------------------------------------------------|
D-----------------------12----------------------12--|
A-14-12-14-12-14-12-14----14-12-14-12-14h15-14------|
E---------------------------------------------------|

e---------------------------------------------------|
B---------------------------------------------------|
G---------------------------------------------------|
D-----------------------12--------------------------|
A-14-12-14-12-14h15-14------------------------------|
E---------------------------------------------------|

Bridge:

e -7-7-7-7-7-7-7-7-7-7-7-7-7--7--7--7--7--7--7-7-7-10-10-10-8--8--8--10-10-10-|
B -8-8-8-8-8-8-8-8-8-8-8-8-10-10-10-10-10-10-8-8-8-10-10-10-10-10-10-10-10-10-|
G -7-7-7-7-7-7-7-7-7-7-7-7-8--8--8--8--8--8--9-9-9-11-11-11-9--9--9--11-11-11-|
D -9-9-9-9-9-9-9-9-9-9-9-9-9--9--9--9--9--9--9-9-9-12-12-12-10-10-10-12-12-12-|
A -7-7-7-7-7-7-7-7-7-7-7-7-7--7--7--7--7--7--7-7-7-10-10-10-8--8--8--10-10-10-|
E -7-7-7-7-7-7-7-7-7-7-7-7-7--7--7--7--7--7--7-7-7-10-10-10-8--8--8--10-10-10-|

down up up strokes
Tap to rate this tab
# A B C D E F G H I J K L M N O P Q R S T U V W X Y Z