Song name
# A B C D E F G H I J K L M N O P Q R S T U V W X Y Z

Stargazer - Red Antlered Radiant tab

http://www.myspace.com/theserpentinquisitor

Artist: StarGazer
Album: A Great Work of Ages
Song:   Red Antlered Radiant
Tuning: D# G# C# F# A# D# (Eb Standard)


    Intro:

    |--------------------------------------------------------------------|
    |--------------------------------------------------------------------|
    |--------------------------------------------------------------------|
    |-------------10-------9-------7-------9-------10-------9-------7----| x 8
    |--------------------------------------------------------------------|
    |-0-0-0-0-0-0--8-0-0-0-7-0-0-0-5-0-0-0-7-0-0-0--8-0-0-0-7-0-0-0-5----|


    Verse riff:
    |---------------------------------------------------------|
    |---------------------------------------------------------|
    |---------------------------------------------------------| x 4
    |-------------9-9-------------7-7-------------10----------|
    |-0-0-0-0-0-0-7-7-0-0-0-0-0-0-5-5--------------8----------|
    |---------------------------------6-6-6-6-6-6----0-5-6----|

                  PM------|                                 
    |----------------------------------------------------------------------|
    |----------------------------------------------------------------------| x 2
    |----------------------------------------------------------------------|
    |-7-7-7-7-7-7-x-x-x-x-x-7-7-7-7-7-7------------------------------------|
    |-5-5-5-5-5-5-x-x-x-x-x-5-5-5-5-5-5-------3----------------------------|
    |-----------------------------------3-5-6---6-5------------------------|


    Then back to the verse riff:
    |---------------------------------------------------------|
    |---------------------------------------------------------|
    |---------------------------------------------------------| x 4
    |-------------9-9-------------7-7-------------10----------|
    |-0-0-0-0-0-0-7-7-0-0-0-0-0-0-5-5--------------8----------|
    |---------------------------------6-6-6-6-6-6----0-5-6----|

    Then the intro riff repeats:
    |--------------------------------------------------------------------|
    |--------------------------------------------------------------------|
    |--------------------------------------------------------------------|
    |-------------10-------9-------7-------9-------10-------9-------7----| x 4
    |--------------------------------------------------------------------|
    |-0-0-0-0-0-0--8-0-0-0-7-0-0-0-5-0-0-0-7-0-0-0--8-0-0-0-7-0-0-0-5----|


    |---------------------------------------------------------|
    |---------------------------------------------------------|
    |---------------------------------------------------------| x 4
    |-------------9-9-------------7-7-------------10----------|
    |-0-0-0-0-0-0-7-7-0-0-0-0-0-0-5-5--------------8----------|
    |---------------------------------6-6-6-6-6-6----0-5-6----|



                      PM--|                                        PM--|
    |------------------------------------------------------------------------|
    |------------------------------------------------------------------------|
    |------------------------------------------------------------------------|
    |-6-6-6-6-6-6-6-6--------10-----------------10---------------------------|
    |-4-4-4-4-4-4-4-4-7-9-10--8-9-9-9-9-9-9-9-9--8-9-9-9-9-9-9-9-9-7-9-10----|
    |-----------------5-7--8----7-7-7-7-7-7-7-7----7-7-7-7-7-7-7-7-5-7--8----|
                                  x 4
                                              PM--|
    |---------------------------------------------------|
    |---------------------------------------------------|
    |---------------------------------------------------|
    |-------------------------6-6-6-6-6-6-6-6-----------|
    |-3-3-3-3-3-3-8-8-8-7-7-7-4-4-4-4-4-4-4-4-7-9-10----|
    |-1-1-1-1-1-1-6-6-6-5-5-5-----------------5-7--8----|

    Music then slows down to this riff:
    |----------------------------------------------------------------|
    |----------------------------------------------------------------|
    |----------------------------------------------------------------|
    |-7-7-7-7-7-7-7-7-7-7-8-8-8-8-8-8-8-8-8-8-7-7-7-7-7-7-7-7-7-7----|
    |-5-5-5-5-5-5-5-5-5-5-8-8-8-8-8-8-8-8-8-8-5-5-5-5-5-5-5-5-5-5----|
    |-5-5-5-5-5-5-5-5-5-5-6-6-6-6-6-6-6-6-6-6-5-5-5-5-5-5-5-5-5-5----|         x 4

    |----------------------------------------------------------------|
    |----------------------------------------------------------------|
    |----------------------------------------------------------------|
    |-5-5-5-5-5-5-5-5-5-5-7-7-7-7-7-7-7-7-7-7-8-8-8-8-8-8-8-8-8-8----|
    |-3-3-3-3-3-3-3-3-3-3-5-5-5-5-5-5-5-5-5-5-8-8-8-8-8-8-8-8-8-8----|
    |-3-3-3-3-3-3-3-3-3-3-5-5-5-5-5-5-5-5-5-5-6-6-6-6-6-6-6-6-6-6----|

    |---------------------------------------------|
    |---------------------------------------------|
    |---------------------------------------------|
    |-7-7-7-7-7-7-7-7-7-7-5-5-5-5-5-5-5-5-5-5-----|
    |-7-7-7-7-7-7-7-7-7-7-3-3-3-3-3-3-3-3-3-3-----|
    |-5-5-5-5-5-5-5-5-5-5-3-3-3-3-3-3-3-3-3-3-----|


    Riff then moves up a key:
    |----------------------------------------------------------------------------------------------|
    |----------------------------------------------------------------------------------------------|
    |----------------------------------------------------------------------------------------------|
    |-9-9-9-9-9-9-9-9-9-9-10-10-10-10-10-10-10-10-10-10-9-9-9-9-9-9-9-9-9-9-7-7-7-7-7-7-7-7-7-7----|
    |-7-7-7-7-7-7-7-7-7-7-10-10-10-10-10-10-10-10-10-10-7-7-7-7-7-7-7-7-7-7-5-5-5-5-5-5-5-5-5-5----|
    |-7-7-7-7-7-7-7-7-7-7--8--8--8--8--8--8--8--8--8--8-7-7-7-7-7-7-7-7-7-7-5-5-5-5-5-5-5-5-5-5----|
    x4

    |-----------------------------------------------------------------------------------------------|
    |-----------------------------------------------------------------------------------------------|
    |-----------------------------------------------------------------------------------------------|
    |-9-9-9-9-9-9-9-9-9-9-10-10-10-10-10-10-10-10-10-10-9-9-9-9-9-9-9-9-9-9--7-7-7-7-7-7-7-7-7-7----|
    |-7-7-7-7-7-7-7-7-7-7-10-10-10-10-10-10-10-10-10-10-9-9-9-9-9-9-9-9-9-9--5-5-5-5-5-5-5-5-5-5----|
    |-7-7-7-7-7-7-7-7-7-7--8--8--8--8--8--8--8--8--8--8-7-7-7-7-7-7-7-7-7-7--5-5-5-5-5-5-5-5-5-5----|


    After each chord slide it down the neck to get the sound in the recording:

    |-------------------------------------------------------|
    |-------------------------------------------------------|
    |-------------------------------------------------------|   x 4
    |--7----8----9----10------------------------------------|
    |--7----8----9----10------------------------------------|
    |--5----6----7-----8------------------------------------|

    Then on the last one play this quick sequence and tremelo pick the first 6 notes:

    |----------------------------------------|
    |--------------------8-10-----6-----9----|
    |------------------9--------7-----6------|
    |-------------7-10--------7-----7--------|
    |------------7----------------------------|
    |----------------------------------------|

    Song then flows to this odd minor 7 chord progression with intermittent palm 
muting between sequences:
    |-----------------------------------------------------|
    |-18-18--13-13--8-8--13-13--18-18--13-13--8-8---------|
    |-17-17--12-12--7-7--12-12--17-17--12-12--7-7---------| x 3
    |-19-19--14-14--9-9--14-14--19-19--14-14--9-9---------|
    |-17-17--12-12--7-7--12-12--17-17--12-12--7-7---------|
    |-----------------------------------------------------|


    On the last run through let the end chord ring out:
    |------------------------------------------------0-0----|
    |-18-18--13-13--8-8--13-13--18-18--13-13--8-8-8--1-1----|
    |-17-17--12-12--7-7--12-12--17-17--12-12--7-7-7--0-0----|
    |-19-19--14-14--9-9--14-14--19-19--14-14--9-9-9--2-2----|
    |-17-17--12-12--7-7--12-12--17-17--12-12--7-7-7--0-0----|
    |-------------------------------------------------------|


    Earlier riff then repeats, first part is palm muted at half time:
    |------------------------------------------------------------------------|
    |------------------------------------------------------------------------|
    |------------------------------------------------------------------------|
    |-6-6-6-6-6-6-6-6--------10-----------------10---------------------------|
    |-4-4-4-4-4-4-4-4-7-9-10--8-9-9-9-9-9-9-9-9--8-9-9-9-9-9-9-9-9-7-9-10----|
    |-----------------5-7--8----7-7-7-7-7-7-7-7----7-7-7-7-7-7-7-7-5-7--8----|
                                  
                                              PM--|
    |---------------------------------------------------|
    |---------------------------------------------------|
    |---------------------------------------------------|
    |-------------------------6-6-6-6-6-6-6-6-----------|
    |-3-3-3-3-3-3-8-8-8-7-7-7-4-4-4-4-4-4-4-4-7-9-10----|
    |-1-1-1-1-1-1-6-6-6-5-5-5-----------------5-7--8----|


    Solo then begins over previous progression (isn't 100% but close):
      T
|--------------/17-12-13-12-----------------13-12-|
|----------12---------------13-12--11-13-10-------|
|----10-13----------------------------------------|
|-11----------------------------------------------|
|-------------------------------------------------|
|-------------------------------------------------|

--------------------------------------------16-17-19--|
12-15-13-12-13b14-12--12-13-12-13-/16-17-19-----------|
------------------------------------------------------|
------------------------------------------------------|
------------------------------------------------------|
------------------------------------------------------|



    |-19-17-16-------17-16-----------------------------------|
    |----------19-17-------17-----------14-16----------13-15-|
    |--------------------------13-15-16-------12-14-15-------|
    |--------------------------------------------------------|
    |--------------------------------------------------------|
    |--------------------------------------------------------|

-------------------------------------------|
---------12-15-14-11-----------------------|
11-13-14-------------14-12-11-14-----[7]---|
---------------------------------12--------|
-------------------------------------------|
-------------------------------------------|


    After pinch harmonic at end of solo song flows back into earlier riff:

    |----------------------------------------------------------------|
    |----------------------------------------------------------------|
    |----------------------------------------------------------------|
    |-7-7-7-7-7-7-7-7-7-7-8-8-8-8-8-8-8-8-8-8-7-7-7-7-7-7-7-7-7-7----|
    |-5-5-5-5-5-5-5-5-5-5-8-8-8-8-8-8-8-8-8-8-5-5-5-5-5-5-5-5-5-5----|
    |-5-5-5-5-5-5-5-5-5-5-6-6-6-6-6-6-6-6-6-6-5-5-5-5-5-5-5-5-5-5----|   x 4

    |----------------------------------------------------------------|
    |----------------------------------------------------------------|
    |----------------------------------------------------------------|
    |-5-5-5-5-5-5-5-5-5-5-7-7-7-7-7-7-7-7-7-7-8-8-8-8-8-8-8-8-8-8----|
    |-3-3-3-3-3-3-3-3-3-3-5-5-5-5-5-5-5-5-5-5-8-8-8-8-8-8-8-8-8-8----|
    |-3-3-3-3-3-3-3-3-3-3-5-5-5-5-5-5-5-5-5-5-6-6-6-6-6-6-6-6-6-6----|

    |---------------------------------------------|
    |---------------------------------------------|
    |---------------------------------------------|
    |-7-7-7-7-7-7-7-7-7-7-5-5-5-5-5-5-5-5-5-5-----|
    |-7-7-7-7-7-7-7-7-7-7-3-3-3-3-3-3-3-3-3-3-----|
    |-5-5-5-5-5-5-5-5-5-5-3-3-3-3-3-3-3-3-3-3-----|

    Then, as before, riff moves up a key:
    |----------------------------------------------------------------------------------------------|
    |----------------------------------------------------------------------------------------------|
    |----------------------------------------------------------------------------------------------|
    |-9-9-9-9-9-9-9-9-9-9-10-10-10-10-10-10-10-10-10-10-9-9-9-9-9-9-9-9-9-9-7-7-7-7-7-7-7-7-7-7----|
    |-7-7-7-7-7-7-7-7-7-7-10-10-10-10-10-10-10-10-10-10-7-7-7-7-7-7-7-7-7-7-5-5-5-5-5-5-5-5-5-5----|
    |-7-7-7-7-7-7-7-7-7-7--8--8--8--8--8--8--8--8--8--8-7-7-7-7-7-7-7-7-7-7-5-5-5-5-5-5-5-5-5-5----|
    x4

    |-----------------------------------------------------------------------------------------------|
    |-----------------------------------------------------------------------------------------------|
    |-----------------------------------------------------------------------------------------------|
    |-9-9-9-9-9-9-9-9-9-9-10-10-10-10-10-10-10-10-10-10-9-9-9-9-9-9-9-9-9-9--7-7-7-7-7-7-7-7-7-7----|
    |-7-7-7-7-7-7-7-7-7-7-10-10-10-10-10-10-10-10-10-10-9-9-9-9-9-9-9-9-9-9--5-5-5-5-5-5-5-5-5-5----|
    |-7-7-7-7-7-7-7-7-7-7--8--8--8--8--8--8--8--8--8--8-7-7-7-7-7-7-7-7-7-7--5-5-5-5-5-5-5-5-5-5----|



    End riff then begins (listen to song to get exact timing of pinch harmonics):
    |-----------------------------------------------------------------------|
    |-----------------------------------------------------------------------|
    |---------5-5-5-5-5-5-4-4-4-4-4-4-----------5-5-5-5-5-5-5-4-4-4-4-4-4---|
    |---------5-5-5-5-5-5-4-4-4-4-4-4-----4-----5-5-5-5-5-5-5-4-4-4-4-4-4---|
    |-----2---3-3-3-3-3-3-2-2-2-2-2-2-3-2-2-[3]-3-3-3-3-3-3-3-2-2-2-2-2-2---|
    |-1-0---3-------------------------1-0-----------------------------------|


    |--------------------------------------|
    |--------------------------------------|
    |-----------5-5-5-5-5-5-4-4-4-4-4-4----|
    |-----4-[4]-5-5-5-5-5-5-4-4-4-4-4-4----|
    |-3-2-2-----3-3-3-3-3-3-2-2-2-2-2-2----|
    |-1-0----------------------------------|


    |------------------------------------------------------|
    |------------------------------------------------------|
    |-5-5-5-5-5-5-4-4-4-4-4-4---7-7-7-7-7-7----------------|
    |-5-5-5-5-5-5-4-4-4-4-4-4---7-7-7-7-7-7-5-5-5-5-5-5----|
    |-3-3-3-3-3-3-2-2-2-2-2-2---5-5-5-5-5-5-3-3-3-3-3-3----|
    |---------------------------------------5-5-5-5-5-5----|


    Duration Legend
    ---------------
    W - whole; H - half; Q - quarter; E - 8th; S - 16th; T - 32nd; X - 64th; a - acciaccatura
    + - note tied to previous; . - note dotted; .. - note double dotted
    Uncapitalized letters represent notes that are staccato (1/2 duration)
    Irregular groupings are notated above the duration line
    Duration letters will always appear directly above the note/fret number it represents the
    duration for.  Duration letters with no fret number below them represent rests.  Multi-
    bar rests are notated in the form Wxn, where n is the number of bars to rest for.  Low
    melody durations appear below the staff

    Tablature Legend
    ----------------
    h   - hammer-on
    p   - pull-off
    b   - bend
    pb  - pre-bend
    r   - bend release (if no number after the r, then release immediately)
    /\  - slide into or out of (from/to "nowhere")
    s   - legato slide
    S   - shift slide
      - natural harmonic
    [n]  - artificial harmonic
    n(n) - tapped harmonic
    ~   - vibrato
    tr  - trill
    T   - tap
    TP  - trem. picking
    PM  - palm muting
    \n/  - tremolo bar dip; n = amount to dip
    \n  - tremolo bar down
    n/  - tremolo bar up
    /n\  - tremolo bar inverted dip
    =   - hold bend; also acts as connecting device for hammers/pulls
    <>  - volume swell (louder/softer)
    x   - on rhythm slash represents muted slash
    o   - on rhythm slash represents single note slash

    Misc Legend
    -----------
    |  - bar
    ||  - double bar
    ||o - repeat start
    o|| - repeat end
    *|  - double bar (ending)
    :  - bar (freetime)
    $  - Segno
    &  - Coda
    Tempo markers -  = BPM(8/16=s8/s16), where s8 = swing 8ths, s16 = swing 16ths


    ***************************************************************************************
    * Generated using Power Tab Editor by Brad Larsen - http://powertab.guitarnetwork.org *
    ***************************************************************************************
Tap to rate this tab
# A B C D E F G H I J K L M N O P Q R S T U V W X Y Z