Song name
# A B C D E F G H I J K L M N O P Q R S T U V W X Y Z

Starland Vocal Band - Afternoon Delight tab

You need a capo for this song

e--5--------3-------6-------5-----------------I
b--6--6-------6-------6-------6---------------I
g--5----5-------5-------5-------5-------------I
d--3------3-------3-------3-------3-----------I
a---------------------------------------------I
e---------------------------------------------I

e--x--------3-------3-------3-I
b--6----6-------6-------6-----I
g--3--3---3---3---3---3---3---I
d--3--------------------------I
a-----------------------------I
e-----------------------------I

Then repeat the whole thing

I'm pretty sure this is right. I played along with  
the song and it sounded really good. I hope you enjoy it!
Tap to rate this tab
# A B C D E F G H I J K L M N O P Q R S T U V W X Y Z