Guitaretab - guitar tabs
Song name
# A B C D E F G H I J K L M N O P Q R S T U V W X Y Z

Starr Ringo - It Dont Come Easy tab

-----------------------------------------------------------------------------
	              IT DONT COME EASY - RINGO STARR
-----------------------------------------------------------------------------
Tabbed by: FLYBLOW
Email: MAZEY098@YAHOO.CO.UK

Tuning:
[ Tab from: http://www.guitaretab.com/s/starr-ringo/18270.html ]
e|----2-----0--------0-------------------------------------------------3--0--|
B|-------3-----3--3-----1----0--1---------------1--0--1----------------------|
G|-------------------------2---------------------------------------2---------|
D|-0-------------------------------0h2p0-----2-----------0h2p0--0------------|
A|----------------------------------------3----------------------------------|
E|---------------------------------------------------------------------------|

e|--3----------|
B|-----2-------|
G|-------------|
D|-------------|
A|-------------|
E|-------------|

  Chord progression stays the same during verses: D Am C D

| /  slide up
| \  slide down
| h  hammer-on
| p  pull-off
| ~  vibrato
| +  harmonic
| x  Mute note
Related for It Dont Come Easy tab
It Dont Come Easy chords by Starr Ringo