Song name
# A B C D E F G H I J K L M N O P Q R S T U V W X Y Z

Starrfadu - Conversation In Peccancy tab

Artist: Starrfadu
Album: Narrow Road To Silence
Song: Conversation In Peccancy

Tuning: Standard (EADGBe) No Capo

Intro
e|--0-0-0-0-0-0-0-0-0-0-0-0-0-0-0-0-0-0-0-0-0-0-0-0-0-0-0-0-0-0-0-0--|
B|--5-5-5-5-5-5-5-5-5-5-5-5-5-5-5-5-5-5-5-5-5-5-5-5-5-5-5-5-5-5-5-5--|
G|--7-7-7-7-7-7-7-7-6-6-6-6-6-6-6-6-7-7-7-7-7-7-7-7-6-6-6-6-6-6-6-6--|
D|--7-7-7-7-7-7-7-7-7-7-7-7-7-7-7-7-7-7-7-7-7-7-7-7-7-7-7-7-7-7-7-7--|
A|-------------------------------------------------------------------|
E|-------------------------------------------------------------------|

e|--0-0-0-0-0-0-0-0-0-0-0-0-0-0-0-0-0-0-0-0-0-0-0-0-0-0-0-0-0-0-0-0--|
B|--7-7-7-7-7-7-7-7-5-5-5-5-5-5-5-5-7-7-7-7-7-7-7-7-5-5-5-5-5-5-5-5--|
G|--6-6-6-6-6-6-6-6-6-6-6-6-6-6-6-6-6-6-6-6-6-6-6-6-6-6-6-6-6-6-6-6--|
D|--7-7-7-7-7-7-7-7-7-7-7-7-7-7-7-7-7-7-7-7-7-7-7-7-7-7-7-7-7-7-7-7--|
A|-------------------------------------------------------------------|
E|-------------------------------------------------------------------|

Verse 1
e|--0-0-0-0-0-0-0-0-0-0-0-0-0-0-0-0-0-0-0-0-0-0-0-0-0-0-0-0-0-0-0-0--|
B|--5-5-5-5-5-5-5-5-5-5-5-5-5-5-5-5-7-7-7-7-7-7-7-7-5-5-5-5-5-5-5-5--|
G|--7-7-7-7-7-7-7-7-6-6-6-6-6-6-6-6-6-6-6-6-6-6-6-6-6-6-6-6-6-6-6-6--|
D|--7-7-7-7-7-7-7-7-7-7-7-7-7-7-7-7-7-7-7-7-7-7-7-7-7-7-7-7-7-7-7-7--|
A|-------------------------------------------------------------------|
E|-------------------------------------------------------------------|

e|--0-0-0-0-0-0-0-0-0-0-0-0-0-0-0-0-0-0-0-0-0-0-0-0-0-0-0-0-0-0-0-0--|
B|--5-5-5-5-5-5-5-5-5-5-5-5-5-5-5-5-7-7-7-7-7-7-7-7-5-5-5-5-5-5-5-5--|
G|--7-7-7-7-7-7-7-7-6-6-6-6-6-6-6-6-6-6-6-6-6-6-6-6-6-6-6-6-6-6-6-6--|
D|--7-7-7-7-7-7-7-7-7-7-7-7-7-7-7-7-7-7-7-7-7-7-7-7-7-7-7-7-7-7-7-7--|
A|-------------------------------------------------------------------|
E|-------------------------------------------------------------------|

Chorus 1
e|--0-0-0-0-0-0-0-0-2-2-2-2-2-2-2-2-0-0-0-0-0-0-0-0-2-2-2-2-2-2-2-2--|
B|--0-0-0-0-0-0-0-0-3-3-3-3-3-3-3-3-0-0-0-0-0-0-0-0-3-3-3-3-3-3-3-3--|
G|--1-1-1-1-1-1-1-1-2-2-2-2-2-2-2-2-1-1-1-1-1-1-1-1-2-2-2-2-2-2-2-2--|
D|--2-2-2-2-2-2-2-2-0-0-0-0-0-0-0-0-2-2-2-2-2-2-2-2-0-0-0-0-0-0-0-0--|
A|--2-2-2-2-2-2-2-2-0-0-0-0-0-0-0-0-2-2-2-2-2-2-2-2-0-0-0-0-0-0-0-0--|
E|--0-0-0-0-0-0-0-0-----------------0-0-0-0-0-0-0-0------------------|

e|--0-0-0-0-0-0-0-0-0-0-0-0-0-0-0-0-0-0-0-0-0-0-0-0-0-0-0-0-0-0-0-0--|
B|--5-5-5-5-5-5-5-5-5-5-5-5-5-5-5-5-5-5-5-5-5-5-5-5-5-5-5-5-5-5-5-5--|
G|--6-6-6-7-7-7-7-7-6-6-6-7-7-7-7-7-6-6-6-7-7-7-7-7-6-6-6-7-7-7-7-7--|
D|--7-7-7-7-7-7-7-7-7-7-7-7-7-7-7-7-7-7-7-7-7-7-7-7-7-7-7-7-7-7-7-7--|
A|-------------------------------------------------------------------|
E|-------------------------------------------------------------------|

e|--0-0-0-0-0-0-0-0-0-0-0-0-0-0-0-0-0-0-0-0-0-0-0-0-0-0-0-0-0-0-0-0--|
B|--7-7-7-7-7-7-7-7-5-5-5-5-5-5-5-5-7-7-7-7-7-7-7-7-5-5-5-5-5-5-5-5--|
G|--6-6-6-6-6-6-6-6-6-6-6-6-6-6-6-6-6-6-6-6-6-6-6-6-6-6-6-6-6-6-6-6--|
D|--7-7-7-7-7-7-7-7-7-7-7-7-7-7-7-7-7-7-7-7-7-7-7-7-7-7-7-7-7-7-7-7--|
A|-------------------------------------------------------------------|
E|-------------------------------------------------------------------|

Verse 2
e|--0-0-0-0-0-0-0-0-0-0-0-0-0-0-0-0-0-0-0-0-0-0-0-0-0-0-0-0-0-0-0-0--|
B|--5-5-5-5-5-5-5-5-5-5-5-5-5-5-5-5-7-7-7-7-7-7-7-7-5-5-5-5-5-5-5-5--|
G|--7-7-7-7-7-7-7-7-6-6-6-6-6-6-6-6-6-6-6-6-6-6-6-6-6-6-6-6-6-6-6-6--|
D|--7-7-7-7-7-7-7-7-7-7-7-7-7-7-7-7-7-7-7-7-7-7-7-7-7-7-7-7-7-7-7-7--|
A|-------------------------------------------------------------------|
E|-------------------------------------------------------------------|

e|--0-0-0-0-0-0-0-0-0-0-0-0-0-0-0-0-0-0-0-0-0-0-0-0-0-0-0-0-0-0-0-0--|
B|--5-5-5-5-5-5-5-5-5-5-5-5-5-5-5-5-7-7-7-7-7-7-7-7-5-5-5-5-5-5-5-5--|
G|--7-7-7-7-7-7-7-7-6-6-6-6-6-6-6-6-6-6-6-6-6-6-6-6-6-6-6-6-6-6-6-6--|
D|--7-7-7-7-7-7-7-7-7-7-7-7-7-7-7-7-7-7-7-7-7-7-7-7-7-7-7-7-7-7-7-7--|
A|-------------------------------------------------------------------|
E|-------------------------------------------------------------------|

Chorus 2
e|--0-0-0-0-0-0-0-0-2-2-2-2-2-2-2-2-0-0-0-0-0-0-0-0-0-0-0-0-0-0-0-0--|
B|--0-0-0-0-0-0-0-0-3-3-3-3-3-3-3-3-5-5-5-5-5-5-5-5-5-5-5-5-5-5-5-5--|
G|--1-1-1-1-1-1-1-1-2-2-2-2-2-2-2-2-6-6-6-7-7-7-7-7-6-6-6-7-7-7-7-7--|
D|--2-2-2-2-2-2-2-2-0-0-0-0-0-0-0-0-7-7-7-7-7-7-7-7-7-7-7-7-7-7-7-7--|
A|--2-2-2-2-2-2-2-2-0-0-0-0-0-0-0-0----------------------------------|
E|--0-0-0-0-0-0-0-0--------------------------------------------------|

e|--0-0-0-0-0-0-0-0-2-2-2-2-2-2-2-2-0-0-0-0-0-0-0-0-0-0-0-0-0-0-0-0--|
B|--0-0-0-0-0-0-0-0-3-3-3-3-3-3-3-3-5-5-5-5-5-5-5-5-5-5-5-5-5-5-5-5--|
G|--1-1-1-1-1-1-1-1-2-2-2-2-2-2-2-2-6-6-6-7-7-7-7-7-6-6-6-7-7-7-7-7--|
D|--2-2-2-2-2-2-2-2-0-0-0-0-0-0-0-0-7-7-7-7-7-7-7-7-7-7-7-7-7-7-7-7--|
A|--2-2-2-2-2-2-2-2-0-0-0-0-0-0-0-0----------------------------------|
E|--0-0-0-0-0-0-0-0--------------------------------------------------|

e|--0-0-0-0-0-0-0-0-0-0-0-0-0-0-0-0-0-0-0-0-0-0-0-0-0-0-0-0-0-0-0-0--|
B|--5-5-5-5-5-5-5-5-5-5-5-5-5-5-5-5-7-7-7-7-7-7-7-7-5-5-5-5-5-5-5-5--|
G|--6-6-6-7-7-7-7-7-6-6-6-7-7-7-7-7-6-6-6-6-6-6-6-6-6-6-6-6-6-6-6-6--|
D|--7-7-7-7-7-7-7-7-7-7-7-7-7-7-7-7-7-7-7-7-7-7-7-7-7-7-7-7-7-7-7-7--|
A|-------------------------------------------------------------------|
E|-------------------------------------------------------------------|

e|--0-0-0-0-0-0-0-0-0-0-0-0-0-0-0-0--|
B|--7-7-7-7-7-7-7-7-5-5-5-5-5-5-5-5--|
G|--6-6-6-6-6-6-6-6-6-6-6-6-6-6-6-6--|
D|--7-7-7-7-7-7-7-7-7-7-7-7-7-7-7-7--|
A|-----------------------------------|
E|-----------------------------------|

Verse 3 (with tremolo)
e|--0---------------0---------------0---------------0----------------|
B|--5---------------5---------------7---------------5----------------|
G|--7---------------6---------------6---------------6----------------|
D|--7---------------7---------------7---------------7----------------|
A|-------------------------------------------------------------------|
E|-------------------------------------------------------------------|

e|--0---------------0---------------0---------------0----------------|
B|--5---------------5---------------7---------------5----------------|
G|--7---------------6---------------6---------------6----------------|
D|--7---------------7---------------7---------------7----------------|
A|-------------------------------------------------------------------|
E|-------------------------------------------------------------------|

Chorus 3
e|--0---------------2---------------0-0-0-0-0-0-0-0-0-0-0-0-0-0-0-0--|
B|--0---------------3---------------5-5-5-5-5-5-5-5-5-5-5-5-5-5-5-5--|
G|--1---------------2---------------6-6-6-7-7-7-7-7-6-6-6-7-7-7-7-7--|
D|--2---------------0---------------7-7-7-7-7-7-7-7-7-7-7-7-7-7-7-7--|
A|--2---------------0------------------------------------------------|
E|--0----------------------------------------------------------------|

e|--0---------------2---------------0-0-0-0-0-0-0-0-0-0-0-0-0-0-0-0--|
B|--0---------------3---------------5-5-5-5-5-5-5-5-5-5-5-5-5-5-5-5--|
G|--1---------------2---------------6-6-6-7-7-7-7-7-6-6-6-7-7-7-7-7--|
D|--2---------------0---------------7-7-7-7-7-7-7-7-7-7-7-7-7-7-7-7--|
A|--2---------------0------------------------------------------------|
E|--0----------------------------------------------------------------|

e|--0-0-0-0-0-0-0-0-0-0-0-0-0-0-0-0-0-0-0-0-0-0-0-0-0-0-0-0-0-0-0-0--|
B|--5-5-5-5-5-5-5-5-5-5-5-5-5-5-5-5-7-7-7-7-7-7-7-7-5-5-5-5-5-5-5-5--|
G|--6-6-6-7-7-7-7-7-6-6-6-7-7-7-7-7-6-6-6-6-6-6-6-6-6-6-6-6-6-6-6-6--|
D|--7-7-7-7-7-7-7-7-7-7-7-7-7-7-7-7-7-7-7-7-7-7-7-7-7-7-7-7-7-7-7-7--|
A|-------------------------------------------------------------------|
E|-------------------------------------------------------------------|

e|--0-0-0-0-0-0-0-0-0-0-0-0-0-0-0-0--|
B|--7-7-7-7-7-7-7-7-5-5-5-5-5-5-5-5--|
G|--6-6-6-6-6-6-6-6-6-6-6-6-6-6-6-6--|
D|--7-7-7-7-7-7-7-7-7-7-7-7-7-7-7-7--|
A|-----------------------------------|
E|-----------------------------------|

Verse 4
e|--0-0-0-0-0-0-0-0-0-0-0-0-0-0-0-0-0-0-0-0-0-0-0-0-0-0-0-0-0-0-0-0--|
B|--5-5-5-5-5-5-5-5-5-5-5-5-5-5-5-5-5-5-5-5-5-5-5-5-5-5-5-5-5-5-5-5--|
G|--7-7-7-7-7-7-7-7-6-6-6-6-6-6-6-6-7-7-7-7-7-7-7-7-6-6-6-6-6-6-6-6--|
D|--7-7-7-7-7-7-7-7-7-7-7-7-7-7-7-7-7-7-7-7-7-7-7-7-7-7-7-7-7-7-7-7--|
A|-------------------------------------------------------------------|
E|-------------------------------------------------------------------|

e|--0-0-0-0-0-0-0-0-0-0-0-0-0-0-0-0-0-0-0-0-0-0-0-0-0-0-0-0-0-0-0-0--|
B|--5-5-5-5-5-5-5-5-5-5-5-5-5-5-5-5-5-5-5-5-5-5-5-5-5-5-5-5-5-5-5-5--|
G|--7-7-7-7-7-7-7-7-6-6-6-6-6-6-6-6-7-7-7-7-7-7-7-7-6-6-6-6-6-6-6-6--|
D|--7-7-7-7-7-7-7-7-7-7-7-7-7-7-7-7-7-7-7-7-7-7-7-7-7-7-7-7-7-7-7-7--|
A|-------------------------------------------------------------------|
E|-------------------------------------------------------------------|

Ending
e|--0---------------0---------------0---------------0----------------|
B|--5---------------5---------------5---------------5----------------|
G|--7---------------6---------------7---------------6----------------|
D|--7---------------7---------------7---------------7----------------|
A|-------------------------------------------------------------------|
E|-------------------------------------------------------------------|
Tap to rate this tab
# A B C D E F G H I J K L M N O P Q R S T U V W X Y Z