Song name
# A B C D E F G H I J K L M N O P Q R S T U V W X Y Z

Stars - Look Up tab

Song: Look Up
by; Stars
Tabbed by: Madison Wikston
Email: madness_225@hotmail.com

Tuning: standard

intro (violin in actual recording, but rewritten for guitar):
e|--------15-----------------------15------15---13-------------------|
B|-13--15-----13------------13--15------13---------------------------|
G|--------------12---14----------------------------------------------|
D|-------------------------------------------------------------------|
A|-------------------------------------------------------------------|
E|-------------------------------------------------------------------|


Main riff (originally violin as well)
e|--------15-----15--13------------15------15---13-------------------|
B|-13--15-----13------------13--15------13---------------------------|
G|-------------------------------------------------------------------|
D|-------------------------------------------------------------------|
A|-------------------------------------------------------------------|
E|-------------------------------------------------------------------|

Verse:

e|---------------------------------------------------------|
B|---------------------------------------------------------|
G|---------------------------------------------------------|
D|--10-10-10-10-10-10-7-7-7-7-7-7-3-3-3-3-3-3-3-3-3-3-3-3--|
A|--10-10-10-10-10-10-7-7-7-7-7-7-3-3-3-3-3-3-3-3-3-3-3-3--|
E|--8--8--8--8--8--8--5-5-5-5-5-5-1-1-1-1-1-1-1-1-1-1-1-1--|

Chorus: 

e|----------------------------------------------------------|
B|----------------------------------------------------------|
G|----------------------------------------------------------|
D|-3-3-3-3-3-3-10-10-10-10-10-10-7-7-7-7-7-7-5-5-5-5-5-5----|
A|-3-3-3-3-3-3-10-10-10-10-10-10-7-7-7-7-7-7-5-5-5-5-5-5----|
E|-1-1-1-1-1-1-8--8--8--8--8--8--5-5-5-5-5-5-3-3-3-3-3-3----|

:]
Tap to rate this tab
# A B C D E F G H I J K L M N O P Q R S T U V W X Y Z