Song name
# A B C D E F G H I J K L M N O P Q R S T U V W X Y Z

Stars - This Charming Man tab

E --9--9--7-7--10--9---7--7-|
B -10-10--7-7--10--10--7--7-|
G --9--9--7-7--11---9--7--7-|
D -11-11--9-9--12--11--9--9-|
A --------------------------|
E --------------------------|

Repeat
E --9--9--7-7--10--9---7--7-|
B -10-10--7-7--10--10--7--7-|
G --9--9--7-7--11---9--7--7-|
D -11-11--9-9--12--11--9--9-|
A --------------------------|
E --------------------------|
Tap to rate this tab
# A B C D E F G H I J K L M N O P Q R S T U V W X Y Z