Song name
# A B C D E F G H I J K L M N O P Q R S T U V W X Y Z

Starsailor - Safe At Home tab

-------------------------------------------------------------------------------
			     SAFE AT HOME - Starsailor
-------------------------------------------------------------------------------

This is the solo featured at the end of the song, i think its right, i didn't probobly 
all the vibrato effects in but just do then as you feel, i tried to get the timing 
on this tab, but if your having trouble listen to the song.

Enjoy :)

Tabbed by: InSanAndreas
Email: leeaustin1990@hotmail.com

Tuning:Standard

e|16~----14-12---14-16~---12~-----11~--|
B|-------------------------------------|
G|-------------------------------------|
D|-------------------------------------|
A|-------------------------------------|
E|-------------------------------------|

e|16~----14-12---14-16~---19----/21-19-|
B|-------------------------------------|
G|-------------------------------------|
D|-------------------------------------|
A|-------------------------------------|
E|-------------------------------------|

e|21-----19-21------12----------/14-11-|
B|-------------------------------------|
G|-------------------------------------|
D|-------------------------------------|
A|-------------------------------------|
E|-------------------------------------|

e|21-----19-21------12-11------------9-|
B|-------------------------------------|
G|-------------------------------------|
D|-------------------------------------|
A|-------------------------------------|
E|-------------------------------------|


| /  slide up
| \  slide down
| h  hammer-on
| p  pull-off
| ~  vibrato
| +  harmonic
| x  Mute note
===============================================================================
Tap to rate this tab
# A B C D E F G H I J K L M N O P Q R S T U V W X Y Z