Song name
# A B C D E F G H I J K L M N O P Q R S T U V W X Y Z

Starsailor - Safe At Home tab

----------------------------------------------------------------------------
			     SAFE AT HOME - Starsailor
----------------------------------------------------------------------------
Tabbed by: Lee Austin (InSanAndreas)
Email: leeaustin1990@hotmail.com

Tuning: Standard
Capo: Fret 4

Capo 4th fret

     Esus        Am         C       F         G          G2
e|---------|------------|-------|-------|----------|-----------|
B|---------|---1----1---|---1---|---1---|----------|-----------|
G|-----2---|-----2----2-|-----0-|-----2-|----------|---0----0--|
D|---2---2-|--2----2----|--2----|--3----|------0---|-----0----0|
A|-0-------|-0----0-----|-3-----|-3-----|----2---2-|--2----2---|
E|---------|------------|-------|-------|--3-------|-3----3----|

Intro - Esus (x2)

Am                  C (x2)              F       C    G    Esus  Am
sit down my wounded friend.........your safe at home again
                C (x2)          F      C    G2
or in a strange hotel.....where we can play pretend

            Esus                           C (x2)
but when it rains..............my heart it soars
               G2                      Am(x2)
whats yours is mine......whats mine is yours
                                       C(x2)
theres still a cloud.......hangs on my head
              G2                      Esus
cant block it out......so im going to bed
Am                C(x2)                      F       C       G2   Am
sit down sit down again...............theres nothing left to lose
                    C(x2)              F     C       G2
your still a golden age...........when all i have is you

            Esus                   C(x2)
but when it rains......my heart is soars
               G2                                      Am(x2)
whats yours is mine......................whats mine is yours
                                    C(x2)
theres still a cloud....hangs on my head
              G2                         Am(x2)
cant block it out.........so im going to bed

Solo:

e|16~----14-12---14-16~---12~-----11~--|
B|-------------------------------------|
G|-------------------------------------|
D|-------------------------------------|
A|-------------------------------------|
E|-------------------------------------|

e|16~----14-12---14-16~---19----/21-19-|
B|-------------------------------------|
G|-------------------------------------|
D|-------------------------------------|
A|-------------------------------------|
E|-------------------------------------|

e|21-----19-21------12----------/14-11-|
B|-------------------------------------|
G|-------------------------------------|
D|-------------------------------------|
A|-------------------------------------|
E|-------------------------------------|

e|21-----19-21------12-11------------9-|
B|-------------------------------------|
G|-------------------------------------|
D|-------------------------------------|
A|-------------------------------------|
E|-------------------------------------|

Outro
Am G2 Am G2 Esus

Note: Firstly id like to thank exterior zulu who did the chords version, i couldn't find 
right starting point for the entire song, though i did tab the solo myself.
Tap to rate this tab
 
# A B C D E F G H I J K L M N O P Q R S T U V W X Y Z