Song name
# A B C D E F G H I J K L M N O P Q R S T U V W X Y Z

Starsailor - Coming Down chords

Highlighted       Show chord diagrams
Not the neatest but it's right. Listen for the changes etc.


Intro

Em (Hammer on A)

Verse1

Em
If you don't mind
Could we not fight?
I see you're close woman
In the night

Am Asus2 Am

I'm sober

Fill 1  Em

Still alive

Verse 2

Waste your days
On your own
Getting drunk
getting stoned
I'm sober
Still alone

Chorus

Em/B                 Bb
Must I always take a back seat?
Am                    Em
Must I always be your clown?
Em/B                Bb
Did you ever really love me?
Am                     Em
Were you always coming down?

Verse 3

See your face
See your eyes
Shouldn't have left
Shouldn't have lied
I'm sober
Spirit's died

Chorus

Must I always take a back seat?
Must I always be your clown?
Did you ever really love me?
Were you always coming down?
Must I always take a back seat?
Must I always be your clown?
Did you ever really love me?
Were you always coming down?

Outro
                           B      Em/B
E--------------------------------------7--------------------------------------|
B--------------------------------------8--p7----h8-----p7---------------------|
G------------5h7-------5h7-------------9--------------------------------------|
D------------000-------000-------------9--------------------------------------|
A-5h7---5h7----------------------------7--------------------------------------|
E-000---000----------------------------7--------------------------------------|

Repeat Outro but hold on the B to finish

Fill 1

G---6-----7----------------|
D--------------------------|
A---4-----5----------------|
E--------------------------|
Tap to rate this tab
# A B C D E F G H I J K L M N O P Q R S T U V W X Y Z