Song name
# A B C D E F G H I J K L M N O P Q R S T U V W X Y Z

Starship - Nothings Gonna Stop Us Now tab

I read a couple of tabs for this and they sounded wrong so i have tried to do one of my 
enjoy !-craig s - scotland

e----------------12-------------------------------------------12-----12-----|
b-12---------15----------------13--12----------------------12----15---------|
g----14--12-----------14--12-----------14--12-------------------------------|
a-----------------------------------------------14~~--12--------------------|
e---------------------------------------------------------------------------|

e-16>--15--12.-|--12--------------------------------------------------12-15--|
b-------------------15--12--15--12----------------------------12--15---------|
g-----------------------------------14--12-----12--14--12--14----------------|
a-------------------------------------------14-------------------------------|
e----------------------------------------------------------------------------|


For the last bit marked by a line (|) must be played quite fast, that is the notes 
to the original song but if you prefer you can just play around with the Eminor pentatonic 
in the key of Em.   ENJOY !!
Tap to rate this tab
 
# A B C D E F G H I J K L M N O P Q R S T U V W X Y Z