Song name
# A B C D E F G H I J K L M N O P Q R S T U V W X Y Z

Starship - Nothings Gonna Stop Us Now tab

                   ----------------------------------------
                      Nothing's Gonna Stop Us Now - Solo
                   ----------------------------------------

Tabbed by : Charlie Davies
e-mail : ledbylions@hotmail.co.uk

legend :
/ = slide forward
\ = slide backward
h = hammer
v = vibrato
p = pull


e|------------------12----------------------------------------------|
B|--12---------15------------------13---12--------------------------|
G|--12--14-12----------14--12-----------------14------12------------|
D|-----------------------------14----12---12------12------14vv-12---|
A|------------------------------------------------------------------|
E|------------------------------------------------------------------|

e|------------------16b17--15--------------|
B|-----17--15--17--------------17----------|
G|--16-------------------------------------|
D|-----------------------------------------|
A|-----------------------------------------|
E|-----------------------------------------|

e|-------------------------------------------------------------19-22-|
B|--------17-15---------------------------------------------15-------|
G|-14/16--------16-16-14----14-------------14------------16----------|
D|-----------------------17----14--17--14-----14--17--14-------------|
A|-------------------------------------------------------------------|
E|-------------------------------------------------------------------|


My first tab, I hope it is useful :)
Tap to rate this tab
 
# A B C D E F G H I J K L M N O P Q R S T U V W X Y Z