Starship - Nothings Gonna Stop Us Now tab

Starship - Nothing's gonna stop us now - guitar solo


Note: Sorry, I didn't bother to put the palm mutes, so just figure them out.


e|-------------------------------------  12---------------------------------------------|
B|-------14--------------------15~---------------------------------13-------12----------|
G|-------14-b----14--12------------------14--h-12--12-------------------------------14--|
D|----------------------------------------------------------------12-------12-------12--|
A|--------------------------------------------------------------------------------------|
E|--------------------------------------------------------------------------------------|

e|-----------------------------------------------------------------------17b---15-------|
B|---------------------------------------------17-s-15-~-s--17---------------------17\--|
G|----------12-------------------------/16----------------------------------------------|
D|-----12---------14-~---12~\-----------------------------------------------------------|
A|--------------------------------------------------------------------------------------|
E|--------------------------------------------------------------------------------------|

e|--------------------------------------------------------------------------------------|
B|-------------17--15-------------------------------------------------------------------|
G|------/16~----------16-----16----14---------------------------------14----------------|
D|-------------------------------------------14---17--14--h-17---p14------14---17--14/--|
A|--------------------------------------------------------------------------------------|
E|--------------------------------------------------------------------------------------|

e|----------------------------------22--|
B|-----------------------------22-------|
G|---------------------19---------------|
D|-------s/21---------------------------|
A|--------------------------------------|
E|--------------------------------------|


************************************

| /   slide up
| \   slide down
| h   hammer-on
| p   pull-off
| ~   vibrato
| +   harmonic
| x   Mute note
| b   Bend
| pb  Pre-bend
| br  Bend release
| pbr Pre-bend release
| brb Bend release bend

************************************
Tap to rate this tab
 
# A B C D E F G H I J K L M N O P Q R S T U V W X Y Z