Song name
# A B C D E F G H I J K L M N O P Q R S T U V W X Y Z

Starship - Nothings Gonna Stop Us Now tab

Well, this isn't also the exact album version but it's better than most solos of 
this that I've checked.

             Legend:
|--------------------------------|
|P - Palm Mute                   |
|--------------------------------|

                                                    P     P      P
e|-----------------------------------------------8-----7------------------|
B|--12~-------------15--15b17----\10--8~---------------------10-----8-----|
G|--12~---14--12-----------------------------/9-----9-----9------9--------|
D|------------------------------------------------------------------------|
A|------------------------------------------------------------------------|
E|------------------------------------------------------------------------|


                                   *Bend the 15 further from 17 for the 19
e|-----------------------------------15b17b19r-15--12\------------12------|
B|--------------12---15b17--r15b17----------------------------------------|
G|--9b10r9-7-----------------------------------------------14b16----------|
D|------------------------------------------------------------------------|
A|------------------------------------------------------------------------|
E|------------------------------------------------------------------------|



e|----------------------------------------------------------------19--22~~|
B|--15p12----------------------------------------------------15-----------|
G|---------14b16r14-----14------12--14----12~-----------/16---------------|
D|-------------------14-----14-----------------14-------------------------|
A|------------------------------------------------------------------------|
E|------------------------------------------------------------------------|
Tap to rate this tab
# A B C D E F G H I J K L M N O P Q R S T U V W X Y Z