Song name
# A B C D E F G H I J K L M N O P Q R S T U V W X Y Z

Starship - Hothings Gonna Stop Us Now tab

Starship - Hothing's gonna stop us now

SOLO:

---------------------------------------------|
-----------15B-------------13--12------------|
-12--14-12-----12/14/12~------------14----12-|
-12---------------------14---12--12----12----|
---------------------------------------------|
---------------------------------------------|

---------------------------15B--15~---12\---|
---------------15B-15-15B-------------------|
--------------------------------------------|
--14b~-12~--12------------------------------|
--------------------------------------------|
--------------------------------------------|

------12------------------------------------|
--/12----15p12------------------------------|
---------------14b14p12h14---12--14--12~----|
---------------------------14--14--14---14\-|
--------------------------------------------|
--------------------------------------------|

----------------20~~-|
---------13/14-------|
------12-------------|     Enjoy!
--/14----------------|
---------------------|
---------------------|
Tap to rate this tab
# A B C D E F G H I J K L M N O P Q R S T U V W X Y Z