Guitaretab - guitar tabs
Song name
# A B C D E F G H I J K L M N O P Q R S T U V W X Y Z

Start Trouble - Lets Get Fucked Up tab

This shit is originally for violin so i tried my best. I even threw in the bass part so 
sound cooler.


Intro/Chorus-Guitar

e-15--------------14-15--------------14-15-17--------------15-17-15--|
b----13-12-15-13--------15-13-12-13----------15-13-12-13-------------|
g--------------------------------------------------------------------|
d--------------------------------------------------------------------|
a--------------------------------------------------------------------|
E--------------------------------------------------------------------|
[ Tab from: http://www.guitaretab.com/s/start-trouble/159360.html ]
Intro/Chorus/Verse-Bass (Play one note and then play it again after bout 1/2 beat)

a------3-3-5-5-----2---|
E--3-3---------3-3---3-|

Pre-Verse (2nd guitar)

e-3--(Hold Note)


Verse-Guitar

e-----15---15--15---15---15---14-15-17-----|
b--15---15---15--15---15---15--------------|
g------------------------------------------|
d------------------------------------------|
a------------------------------------------|
E------------------------------------------|

(Play once and then for the end on the 2nd time play

e-----14-15-17--17------|
b--13-------------------|


3rd time same thing except

e---14-15-15-17-15-|
b13----------------|
Related for Lets Get Fucked Up tab