Song name
# A B C D E F G H I J K L M N O P Q R S T U V W X Y Z

Start Trouble - Move Bitch tab

Guitar 1

intro/verse

e|-----------------------------------|
B|-----------------------------------|
G|-----------------------------------|
D|--3-3-3-3/4-4-4-4/6-6-6-6/4-4-4-4--|    
A|--3-----3/4-----4/6-----6/4-----4--|
E|--1-----1/2-----2/4-----4/2-----2--|

guitar 2

intro/verse
play after the power chord
e|----------------------------------------------------|
B|----------------------------------------------------|
G|-----10-10-------11-11------13--13---------11-11----|    
D|--(3)-x-x--(3/4)-x--x-(4/6)--x--x---(6/4)---x--x----|
A|--(3)-8-8--(3/4)-9--9-(4/6)-11--11--(6/4)---9--9----|
E|--(1)------(1/2)------(2/4)---------(4/2)-----------|

guitar 1

Chorus

e|--------------------------------------|
B|--------------------------------------|
G|--------------------------------------|
D|--3-----4-----6-----4-----------------|    
A|--3-X8--4-X8--6-X8--4-X8--------------|
E|--1-----2-----4-----2-----------------|

guitar 2

Chorus

e|------------------------------------|
B|------------------------------------|
G|----10------------------------------|
D|----x--X32--------------------------|    
A|----8-------------------------------|
E|------------------------------------|
Tap to rate this tab
# A B C D E F G H I J K L M N O P Q R S T U V W X Y Z