Song name
# A B C D E F G H I J K L M N O P Q R S T U V W X Y Z

Starting Line - Island tab

-------------------------------------------------------------------------------
			     ISLAND - The Starting Line
-------------------------------------------------------------------------------
Tabbed by: ohhh shoot
Email: www.myspace.com/ohshoot_itserik

Tuning: half step/drop D

x = rake
~ = let ring
h = hammer on
/ = slide
* = palm mute

Perfect. I know it. Enjoy. hahah

First Guitar
eb|------------------|-------------------------------------------------------------|
Bb|--play twice as fill---|--------------------------------------------------------|
Gb|------------------|-------------------------------------------------------------|
Db|--0-0-0-0---------|--0-0-0-0--0-0-0-0--0-0-0-0--0-0-0-0---9-9-9-9---------------|
Ab|--0-0-0-0---------|--0-0-0-0--0-0-0-0--0-0-0-0--0-0-0-0---7-7-7-7---------------|
Db|--0-0-0-0---------|--0-0-0-0--0-0-0-0--0-0-0-0--0-0-0-0---7-7-7-7---------------|

e|---------------------------------------------------------------------------|
B|---------------------------------------------------------------------------|
G|---------------------------------------------------------------------------|
D|---------------------------------------------------------------------------|
A|---------------------------------------------------------------------------|
E|---------------------------------------------------------------------------|

First Guitar-contined:
eb|-----------------|
Bb|-----------------|
Gb|-----------------|
Db|--7-7-7-7--9-----|
Ab|--9-9-9-9--7-----|
Db|--9-9-9-9--7-----|

Second Guitar- Fill:
eb|------5------------------|
Bb|----5---7---5-7----------|
Gb|--7-------7--------------|
Db|-------------------------|
Ab|-------------------------|
Db|-------------------------|

Second Guitar- verse:
eb|---------------------------------------------------|
Bb|---------------------------------------------------|
Gb|-7-7-7-7-7-7-7-7-7-7-7-7---------------------------|
Db|-7-7-7-7-7-7-7-7-7-7-7-7---------------------------|
Ab|-5-5-5-5-5-5-5-5-5-5-5-5---------------------------|
Db|---------------------------------------------------|
(after this, just strum the transitions the first guitar makes.)

Pre-Chorus:
eb|------------------------------------------------------------------------|
Bb|------------------------------------------------------------------------|
Gb|------------------------------------------------------------------------|
Db|--5-5-5-5-5/---7-7-7-7--9-9-9-9--5-5-5-5/----7h-9--x-x-x-x--------------|
Ab|--5-5-5-5-5/---7-7-7-7--9-9-9-9--5-5-5-5/----7h-9--x-x-x-x--------------|
Db|--5-5-5-5-5/---7-7-7-7--9-9-9-9--5-5-5-5/----7h-9--x-x-x-x--------------|

First Guitar-Chorus: x2
eb|----------------------------------------------------------------------------|
Bb|----------------------------------------------------------------------------|
Gb|-7-7-7-7-7-7-7-7--6-6-6-6-6-6-6-6--7-7-7-7-7-7-7-7-7-7-7-7------------------|
Db|-------------------7-7-7-7-7-7-7-7--7-7-7-7-7-7-7-7-7-7-7-7--7-7-7-7--------|
Ab|-9-9-9-9-9-9-9-9--0-0-0-0-0-0-0-0--5-5-5-5-5-5-5-5-5-5-5-5--7-7-7-7---------|
Db|-9-9-9-9-9-9-9-9--0-0-0-0-0-0-0-0--5-5-5-5-5-5-5-5-5-5-5-5--7-7-7-7---------|


Second Guitar-Chorus:
eb|------0------0--------0-------0------2------2-----0--------|
Bb|----3---3--3--3-----3---3---3--3---3--3---3--3--3--3-------|
Gb|--4------4------4-2-------2------0------0------2-----2-----|
Db|-----------------------------------------------------------|
Ab|-----------------------------------------------------------|
Eb|-----------------------------------------------------------|

First Guitar-Bridge: x2
eb|---------------------------------------------------------------------------|
Bb|---------------------------------------------------------------------------|
Gb|--************************************************************-------------|
Db|--5-5-5-5-5-5-5-5-5-5-5-5-7-7-7-7-7-7-7-7-7-7-7-7h-9-9-9-9-9-9----x-x-x-x--|
Ab|--5-5-5-5-5-5-5-5-5-5-5-5-7-7-7-7-7-7-7-7-7-7-7-7h-9-9-9-9-9-9----x-x-x-x--|
Eb|--5-5-5-5-5-5-5-5-5-5-5-5-7-7-7-7-7-7-7-7-7-7-7-7h-9-9-9-9-9-9----x-x-x-x--|

Second Guitar-Bridge:
eb|----------------|
Bb|----------------|
Gb|--7~------------|
Db|--7~------------|
Ab|--5~------------|
Eb|--5~------------|


Structure:
Verse x2
Pre-chorus
Chorus
Verse
Pre-Chorus
Chorus x2
Bridge x2
Chorus play x2

Seriously though... if there are any mistakes, which us humans tend to make
i'm sure they're easily fixable and i'll update it if i see any.
Shouldn't be too hard at all.
Tap to rate this tab
# A B C D E F G H I J K L M N O P Q R S T U V W X Y Z