Song name
# A B C D E F G H I J K L M N O P Q R S T U V W X Y Z

Starting Line - Something Left To Give chords

-------------------------------------------------------------------------------
			     SONG NAME - Band Name
-------------------------------------------------------------------------------
Tabbed by: SorryImAwesome.
Email: SorryImAwesome@Hotmail.com

Tuning: Drop Eb (Eb, Ab, Db, Gb, Bb, Eb)

Guitar(s):
1 - Lead
2 - Rhythm

Beautiful song.  Fun to play, awesome to listen to.

Intro:
Guitar 1:
Eb|---0~--------|
Bb|-----0~------| 
Gb|-------6~----| 
Db|---------7~--|
Ab|-0~--------0-|
Eb|-------------|4x 

Verse (2x):
Guitar 1:
Eb|-----0~------|         |-----9p0--------------9p0----12~-------|
Bb|-------0~----|         |---------10-7~--7---------10----10~----|
Gb|---------6~--|         |-----------------------------------11--|
Db|-----------7~|         |-0-0~---------0---0-0~-----------------|
Ab|-0-0~--------|         |---------------------------------------|
Eb|-------------|4x, then |---------------------------------------| Then the first part 2x.

Post-Verse:
Guitar 1:
Eb|---0~--------|          |-------------0~------------|
Bb|-----0~------|          |-------------2~--0h2-------|
Gb|-------1~----|          |---2~------2-2~------2-----|
Db|---------2~--|          |-----4~--4~--0~--------4-2-|
Ab|-----------2~|          |-------0~----0~------------|
Eb|-0~----------| 2x, then |-2~----------x~------------|

Intro (1x), then:

2nd Verse (3x):
Guitar 1:
Eb|-----------------------|         |---0~--------|
Bb|-----------------------|         |-----0~------|
Gb|-----------------------|         |-------6~----|
Db|----0~---------0-------|         |---------7~--|
Ab|------11/12------12----|         |-0~--------0-|
Eb|-14---------14------14-|2x, then |-------------|2x

On the third time, Guitar 2 plays:
Eb|------9p0--------------9p0----12-------|
Bb|----------10-7---7---------10----10----|
Gb|------------------------------------11-|
Db|-0-0~----------0---0-0~----------------|
Ab|---------------------------------------|
Eb|---------------------------------------|

Post-Verse:
Eb|---0~--------|          |-------------0~------------|
Bb|-----0~------|          |-------------2~--0h2-------|
Gb|-------1~----|          |---2~------2-2~------2-----|
Db|---------2~--|          |-----4~--4~--0~--------4-2-|
Ab|-----------2~|          |-------0~----0~------------|
Eb|-0~----------| 2x, then |-2~----------x~------------|

Chorus: 
Guitar 1 plays Verse 1 (1x), while guitar 2 strums this chord progression:
Eb|-0~-|-0~-|-0~-|-0~-|-0~-|
Bb|-0~-|-2~-|-0~-|-2~-|-0~-|
Gb|-2~-|-2~-|-2~-|-2~-|-2~-|
Db|-2~-|-0~-|-2~-|-0~-|-2~-|
Ab|-0~-|-0~-|-0~-|-0~-|-0~-|
Eb|-x--|-x--|-x--|-x--|-x--|

Post-Chorus:
Guitar 1:
Eb|-----------------------------------------------------------------|
Bb|-----------------------------------------------------------------|
Gb|-13-13-13-13-13~-13-13-13/14-14-14~\11-11-11-11-11~-11\9/11\9-9~-|
Db|-x--x--x--x--x---x--x--x--x--x--x---x--x--x--x--x---x--x-x--x-x--|
Ab|-11-11-11-11-11~-11-11-11/12-12-12~\9--9--9--9--9~--9--7-9--7-7~-|
Eb|-----------------------------------------------------------------|3x
Don't play on 3rd repeat!!!            ^^^^^^^^^^^^^^^^^^^^^^^^^^^

Guitar 2 strums this chord progression:
Eb|-0~-|-x--|-0~-|-0~-|-x--|-0~-|-0~-|
Bb|-0~-|-x--|-2~-|-0~-|-x--|-2~-|-0~-|
Gb|-1~-|-2~-|-2~-|-1~-|-2~-|-2~-|-1~-|
Db|-2~-|-4~-|-0~-|-2~-|-4~-|-0~-|-2~-|
Ab|-2~-|-4~-|-0~-|-2~-|-4~-|-0~-|-2~-|
Eb|-0~-|-2~-|-x--|-0~-|-2~-|-x--|-0~-|

2nd Post-Chorus:
Guitar 1:
Eb|-0~-----------|
Bb|-2~-0h2-------|
Gb|-2~-----2-----|
Db|-0~-------4-2-|
Ab|-0~-----------|
Eb|-x------------|

(Not so sure about this progression, but I'm sure you can figure it out.)
Chorus (1x)
Post-Chorus (1x)
Chorus (1x)
Post-Chorus (1x)
2nd Post-Chorus (1x)

Outro:
Guitar 1:
Eb|---0~---------|         |---0~-----|
Bb|-----0~-------|         |-----0~---|
Gb|-------6~-----|         |----------|
Db|---------7~---|         |-------7~-|
Ab|-0~---------0-|         |-0~-------|
Eb|--------------|3x, then |----------|


| /  slide up
| \  slide down
| h  hammer-on
| p  pull-off
| ~  vibrato
| +  harmonic
| x  Mute note
===============================================================================
Tap to rate this tab
# A B C D E F G H I J K L M N O P Q R S T U V W X Y Z