Song name
# A B C D E F G H I J K L M N O P Q R S T U V W X Y Z

Starting Line - What You Want tab

-------------------------------------------------------------------------------
			     What You Want - The Starting Line
-------------------------------------------------------------------------------
Tabbed by: SorryImAwesome.
Email: haha.  Sorryimawesome@hotmail.com =P

Tuning: Half-step down (Eb, Ab, Db, Gb, Bb, eb)

Guitar(s):
1 - Lead
2 - Rhythm

Intro/Verse (Guitar 1):
eb|-2h4p2p0-------0-------0-------0---------7p0-----------0-------0-----|
Bb|---------0-2-4---4---0---0-----------0-------0---0-0h2---2p0-4---4-0-|
Gb|-------------------2---------2---------------------------------------|
Db|---------------------------4-----4s7---7-------7---------------------|
Ab|---------------------------------------------------------------------|
Eb|---------------------------------------------------------------------|2x

Verse Cont'd (Guitar 1):
eb|-2h4p2p0-------0-------0-------0---------7p0-----------0-----2---2-7~-|
Bb|---------0-2-4---4---0---0-----------0-------0---0-0h2---2h4---4---5~-|
Gb|-------------------2---------2----------------------------------------|
Db|---------------------------4-----4s7---7-------7----------------------|
Ab|----------------------------------------------------------------------|
Eb|----------------------------------------------------------------------|1x

Chorus (Guitar 1):
eb|--------------------|
Bb|-10-9---10-9---12-9-|
Gb|------9------9------|
Db|--------------------|
Ab|--------------------|
Eb|--------------------|All the way through the Chorus.

Chorus (Guitar 2):

eb|-0------0------0------0------|-0------0------0------0------0------|
Bb|-0------0------0------0------|-0------0------0------0------0------|
Gb|-1------2------1------x------|-1------2------1------x------2------|
Db|-2------2------2------4------|-2------2------2------4------2------|
Ab|-2------0------2------4------|-2------0------2------4------0------|
Eb|-0(16x)-x(16x)-0(16x)-2(16x)-|-0(16x)-x(16x)-0(16x)-2(16x)-x(16x)-|

Verse 1x
Chorus 1x

Bridge (Guitar 1):
eb|-------------|         |-----------|         |-------------|         |---------|
Bb|-------------|         |-----------|         |-------------|         |---------|
Gb|-13-13s11-11-|         |-11-11s9-9-|         |-13-13s11-11-|         |---------|
Db|-x--x--x--x--|         |-x--x--x-x-|         |-x--x--x--x--|         |-4-------|
Ab|-11-11s9--9--|         |-9--9s-7-7-|         |-11-11s0--0--|         |-4-------|
Eb|-------------|4x, then |-----------|4x, then |-------------|4x, then |-2(16x)--|

Play all of those twice.

Bridge (Guitar 2):
eb|-0------0------0-------------|-0------0------0-----------0-----|
Bb|-0------0------0-------------|-0------0------0-----------0-----|
Gb|-6------2------6-------------|-6------2------6-----------2-----|
Db|-6------2------6------4------|-6------2------6-----4-----2-----|
Ab|-4------0------4------4------|-4------0------4-----4-----0-----|
Eb|-x(16x)-x(16x)-x(16x)-2(16x)-|-x(16x)-x(16x)-x(16x-2(8x)-x(8x)-|

Chorus 1x

And you've finished!

************************************

| /   slide up
| \   slide down
| h   hammer-on
| p   pull-off
| ~   vibrato
| +   harmonic
| x   Mute note
| b   Bend
| pb  Pre-bend
| br  Bend release
| pbr Pre-bend release
| brb Bend release bend

************************************
Tap to rate this tab
 
# A B C D E F G H I J K L M N O P Q R S T U V W X Y Z