Song name
# A B C D E F G H I J K L M N O P Q R S T U V W X Y Z

Starting Line - Given A Chance tab

Drop D tuning
x - muted
u - strum up
d - strum down

Its pretty hard but it sounds good.

Intro
e-------------------------------------------------------
B-------------------------------------------------------
G-------------------------------------------------------
D-7x-7x-7x-7x-7x-7x-7x-7x-7x-7x-7x-7x-7x-7x-7x-7x-7x-7x-
A-7x-7x-7x-7x-7x-7x-7x-7x-7x-7x-7x-7x-7x-7x-7x-7x-7x-7x-
D-7x-7x-7x-7x-7x-7x-7x-7x-7x-7x-7x-7x-7x-7x-7x-7x-7x-7x-
  d  d  d  u  d  u  d  d  d  u  d  u  d  d  d  u  d  u

e-------------------
B-------------------
G-------------------
D-7x-7x-7x-7x-7x-7x-
A-7x-7x-7x-7x-7x-7x-
D-7x-7x-7x-7x-7x-7x-
  d  d  d  u  d  u

Intro cont.
e------------------------------------------------------------
B------------------------------------------------------------
G-9-9-9-9-9-9-7-7-7-7-7-7-6-6-6-6-6-6-4-4-4-4-4-4-6-6-6-6-6-6
D-7-7-7-7-7-7-x-x-x-x-x-x-0-0-0-0-0-0-2-2-2-2-2-2-4-4-4-4-4-4
A-7-7-7-7-7-7-x-x-x-x-x-x-x-x-x-x-x-x-2-2-2-2-2-2-4-4-4-4-4-4
D-7-7-7-7-7-7-x-x-x-x-x-x-7-7-7-7-7-7-2-2-2-2-2-2-4-4-4-4-4-4
  d d d u d u d d d u d u d d d u d u d d d u d u d d d u d u 

e------------------------------------
B------------------------------------
G-2-2-2-2-2-2-9-9-9-9-9-9-4-4-4-4-4-4
D-x-x-x-x-x-x-7-7-7-7-7-7-2-2-2-2-2-2   [repeat once]
A-x-x-x-x-x-x-7-7-7-7-7-7-2-2-2-2-2-2
D-x-x-x-x-x-x-7-7-7-7-7-7-2-2-2-2-2-2
  d d d u d u d d d u d u d d d u d u 

Verse
e---------------------------
B---------------------------
G---------------------------
D-0--------------4----4----4
A-0--------------4----4----4
D-0--------------4----4----4
   "One minute before we play," etc.

e------------------------------------
B------------------------------------
G------------------------------------
D----4-4-4--------2-2-2--------0-0-0x
A----4-4-4--------2-2-2--------0-0-0x
D----4-4-4--------2-2-2--------0-0-0x
  "And when the last note rings," etc.

Im not sure about the rest so shutup.
Tap to rate this tab
 
# A B C D E F G H I J K L M N O P Q R S T U V W X Y Z