Song name
# A B C D E F G H I J K L M N O P Q R S T U V W X Y Z

Starting Line - Up And Go tab

UP AND GP - The Starting Line 
------------------------------------------------------------------------------- 

By: Dave Sterling 

I just tabbed the rhythm, someone else needs to do the lead part. 

Intro: 
e|---------------------------------------------------------------------------| 
B|---------------------------------------------------------------------------| 
G|---------------------------------------------------------------------------| 
D|-22-----------------------22-----------------------------------------------| 
A|-22-----------------------22-----------------------pick scrape-------------| 
E|-00-----------------------00-----------------------------------------------| 
pm pm 

e|---------------------------------------------------------------------------| 
B|--------------------2------------------------------------------------------| 
G|------46-----------2------------------------------------------------------|x2 
D|-2----46---4--2----2------------------------------------------------------| 
A|-2----24---4--2-----------------------------------------------------------| 
E|-0----------2--0-----------------------------------------------------------| 

Verse: 
e|---------------------------------------------------------------------------| 
B|------------2--------------------------------------------------------------| 
G|-----4---6--2-----------4--6-----------------------------------------------|x2 
D|-2---4---6--2-------2---4--6--777x777--------------------------------------| 
A|-2---2---4----------2---2--4--777x777--------------------------------------| 
E|-0------------------0---------555x444--------------------------------------| 
pm pm pm pm pm pm pm 

Pre-Chorus: 
e|---------------------------------------------------------------------------| 
B|---------------------------------------------------------------------------| 
G|---------------------------------------------------------------------------| 
D|-44--77--2-----9-----44---7------------------------------------------------| 
A|-44--77--2-----9-----44---7------------------------------------------------| 
E|-22--55--0-----7-----22---5------------------------------------------------| 

1st Chorus: 
e|---------------------------------------------------------------------------| 
B|--------------------------------------2------------------------------------| 
G|-----4---6------------------46-------2------------------------------------| 
D|-2---4---6---7--x2-------2--46--4-2--2----x2------------------------------| 
A|-2---2---4---7-----------2--24--4-2---------------------------------------| 
E|-0-----------5-----------0-------2-0---------------------------------------| 

Verse: 
e|---------------------------------------------------------------------------| 
B|------------2--------------------------------------------------------------| 
G|-----4---6--2-----------4--6-----------------------------------------------|x2 
D|-2---4---6--2-------2---4--6--777x777--------------------------------------| 
A|-2---2---4----------2---2--4--777x777--------------------------------------| 
E|-0------------------0---------555x444--------------------------------------| 
pm pm pm pm pm pm pm 

Pre-Chorus: 
e|---------------------------------------------------------------------------| 
B|---------------------------------------------------------------------------| 
G|---------------------------------------------------------------------------| 
D|-44--77--2-----9-----44---7------------------------------------------------| 
A|-44--77--2-----9-----44---7------------------------------------------------| 
E|-22--55--0-----7-----22---5------------------------------------------------| 

2nd and 3rd Chorus: 
e|---------------------------------------------------------------------------| 
B|---------------------------------------------------------------------------| 
G|-----4---6-----------------------------------------------------------------| 
D|-2---4---6---7----x4-------------------------------------------------------| 
A|-2---2---4---7-------------------------------------------------------------| 
E|-0-----------5-------------------------------------------------------------| 

Bridge: 
e|---------------------------------------------------------------------------| 
B|---------------------------------------------------------------------------| 
G|---------------------------------------------------------------------------| 
D|-2-------------------------------------------------------------------------| 
A|-2--let ring---------------------------------------------------------------| 
E|-0-------------------------------------------------------------------------| 

e|---------------------------------------------------------------------------| 
B|--------------------2------------------------------------------------------| 
G|------46-----------2------------------------------------------------------|x2 
D|-2----46---4--2----2------------------------------------------------------| 
A|-2----24---4--2-----------------------------------------------------------| 
E|-0----------2--0-----------------------------------------------------------| 
pm pm pm pm pm 

Outro Thingy: 
e|---------------------------------------------------------------------------| 
B|--------------------2------------------------------------------------------| 
G|------46-----------2------------------------------------------------------|x2 
D|-2----46---4--2----2------------------------------------------------------| 
A|-2----24---4--2-----------------------------------------------------------| 
E|-0----------2--0-----------------------------------------------------------| 

Easy song and very fun! Go see them live! 
Tap to rate this tab
 
# A B C D E F G H I J K L M N O P Q R S T U V W X Y Z