Guitaretab - guitar tabs
Song name
# A B C D E F G H I J K L M N O P Q R S T U V W X Y Z

Starting Line - Left Coast Envy tab

-------------------------------------------------------------------------------
			     Left Coast Envy- The Staring Line
-------------------------------------------------------------------------------


Tuning: Standard


  Guitar 1
e|--------------------------------------------------------------------------|
B|--------------------------------------------------------------------------|
G|-9p8--Keep doing that for 5 seconds---------------------------------------|
D|--------------------------------------------------------------------------|
A|--------------------------------------------------------------------------|
E|--------------------------------------------------------------------------|

e|--------------------------------------------------------------------------|
B|--------------------------------------------------------------------------|
G|----9------9---9p8-9p8-9p8---9------9-----11p9-9p8-8h9--------------------|
D|-99--9-999--999------------99-9-999--999----------------------------------|
A|--------------------------------------------------------------------------|
E|--------------------------------------------------------------------------|
  xxxxxxxxxxxxxxx            xxxxxxxxxxxxx
e|---------------------------------------------------------------------------|
B|---------------------------------------------------------------------------|
G|--9------9------9p8-9p8-9p8-----9----9-----11x--9x-8h9---------------------|
D|99-9-999--999-----------------99-9-99-9-99---------------------------------|
A|---------------------------------------------------------------------------|
E|---------------------------------------------------------------------------|
  xxxxxxxxxxxxx                 xxxxxxxxxxxx


e|---------------------------------------------------------------------------|
B|---8h9p8-----8h9p8-------8h9p8-----7p5p4h5 4h5-----------------------------|
G|---------------------------------------------------------------------------|
D|---------------------------------------------------------------------------|
A|---------------------------------------------------------------------------|
E|---------------------------------------------------------------------------|


e|---------------------------------------------------------------------------|
B|---------------------------------------------------------------------------|
G|-11-9-8-8h9-6-9-8-6--11-99-9-88-8-66--3-3h4-9-8-4-3-4h6-3h4----------------|
D|---------------------------------------------------------------------------|
A|---------------------------------------------------------------------------|
E|---------------------------------------------------------------------------|
                       xxxxxxxxxxxxxxx

e|--------------------------------------------------------------------------|
B|--------------------------------------------------------------------------|
G|----11----8h9-six times--11-9-8-9-----------9-----9---9p8-9p8-9p8---------|
D|--9----99--------------------------99---99---9----------------------------|
A|--------------------------------------------------------------------------|
E|--------------------------------------------------------------------------|
                                     xxxxxxxxxxx
e|--------------------------------------------------------------------------|
B|--------------------------------------------------------------------------|
G|------9----9---11p9-9p8-8h9-----------------------------------------------|
D|--99---99---9-------------------------------------------------------------|
A|--------------------------------------------------------------------------|
E|--------------------------------------------------------------------------|
    xxxxxxxxxxx
e|---------------------------------------------------------------------------|
B|---------------------------------------------------------------------------|
G|--9----8-----9----8-----9--8--------9----8----9----8---8h9-8h9-------------|
D|----99---99---99---99-----------------99---99---99---99--------------------|
A|---------------------------------------------------------------------------|
E|---------------------------------------------------------------------------|

e|---------------------------------------------------------------------------|
B|---------------------------------------------------------------------------|
G|---------8---9---8----8h9-8h9----------------------------------------------|
D|----999---9---9---9--------------------------------------------------------|
A|---------------------------------------------------------------------------|
E|---------------------------------------------------------------------------|
[ Tab from: http://www.guitaretab.com/s/starting-line/33306.html ]
e|---------------------------------------------------------------------------|
B|----------------------------------7p5p4h5 4h5------------------------------|
G|---8h9p8--8h9p8------------------------------------------------------------|
D|---------------------------------------------------------------------------|
A|---------------------------------------------------------------------------|
E|---------------------------------------------------------------------------|

e|--------------------------------------------------------------------------|
B|--------------------------------------------------------------------------|
G|--------------------------------------------------------------------------|
D|----8---Let Ring--------------------------11---9---8----------------------|
A|---------------------9óLet Ring-------------------------------------------|
E|--------------------------------------------------------------------------|

e|--------------------------------------------------------------------------|
B|--------------------------------------------------------------------------|
G|---8h9p8------------------------------------------------------------------|
D|--------------9 Let Ring -------------------------------------------------|
A|--------------------------------------------------------------------------|
E|--------------------------------------------------------------------------|


e|--------------------------------------------------------------------------|
B|--------------------------------------------------------------------------|
G|-11p9-9p8-8h9-8h9---------------------------------------------------------|
D|--------------------------------------------------------------------------|
A|--------------------------------------------------------------------------|
E|--------------------------------------------------------------------------|


  Guitar 2
e|--------------------------------------------------------------------------|
B|--------------------------------------------------------------------------|
G|-4--Let Ring--------------------------------------------------------------|
D|-4-------------2----------------6--------------2------Let Ring------------|
A|-2-------------2---Let Ring-----6--------------2--------------------------|
E|---------------0----------------4---Let Ring---0--------------------------|

e|---------------------------------------------------------------------------|
B|---------------------------------------------------------------------------|
G|---9-----------------------------------------------------------------------|
D|---7--Let-Ring--------9--------------------9999----------------------------|
A|---7------------------7--------Let Ring----7777----------------------------|
E|----------------------7--------------------7777----------------------------|
                                             xxxx
e|---------------------------------------------------------------------------|
B|---------------------------------------------------------------------------|
G|-444-444-------------------------------------------------------------------|
D|-444-444---222-222--666-666--4444444444444444------------------------------|
A|-222-222---222-222--666-666--4444444444444444------------------------------|
E|-----------000-000--444-444--2222222222222222------------------------------|

e|--------------------------------------------------------------------------|
B|--------------------------------------------------------------------------|
G|-444-444----666-666-------------------------------------------------------|
D|-444-444----666-666----666-666---444444444444444444-----------------------|
A|-222-222----444-444----666-666---444444444444444444-----------------------|
E|-----------------------444-444---222222222222222222-----------------------|


e|-----------------------------------------------------------------------------|
B|-----------------------------------------------------------------------------|
G|--4444444444444444-----------------------------------------------------------|
D|--4444444444444444--2222222222222222-6666666666666666-4444444444444444-------|
A|--2222222222222222--2222222222222222-6666666666666666-4444444444444444-------|
E|--------------------0000000000000000-4444444444444444-2222222222222222-------|
    xxxxxxxxxxxxxxxxxxxxxxxxxxxxxxxxxxxxxxxxxxxxxxxxxxxxxxxxxxxxxxxxxxx

e|---------------------------------------------------------------------------|
B|---------------------------------------------------------------------------|
G|---------------------------------------------------------------------------|
D|---------------------------------------------------------------------------|
A|---------------------------------------------------------------------------|
E|---------------------------------------------------------------------------|

| /  slide up
| \  slide down
| h  hammer-on
| p  pull-off
| ~  vibrato
| +  harmonic
| x  Mute note
===============================================================================
Related for Left Coast Envy tab