Guitaretab - guitar tabs
Song name
# A B C D E F G H I J K L M N O P Q R S T U V W X Y Z

Starting Line - Given The Chance tab

ok,well it's late and i was like hey, lets do a bitchin tab on Given the Chance cuz im
bored and finished my hw. i had to play this song by myself as a guitarist, without a
second, so it's just a lil different. deal with it bitches.instuctions on signs at the
bottom.
                INTRO
              1ST GUITAR
|--------------------------------------|
|--------------------------------------|
|-4-4-4444-4-4-4444-4-4-4444-4-4-4444--|
|-4-4-4444-4-4-4444-4-4-4444-4-4-4444--|
|-2-2-2222-2-2-2222-2-2-2222-2-2-2222--|
|--------------------------------------|
                                THE VERSE
                               BOTH GUITARS
|------------------------------------------------------------------------|
|------------------------------------------------------------------------|
|-4-4-4444-9-9-9999-4-4-4444-------------------9-9-9~-9-4-4-4~-----------|
|-4-4-4444-9-9-9999-4-4-4444-4-4-4444-6-6-6~-6-9-9-9~-9-4-4-4~-4-4-4~----|2X
|-2-2-2222-7-7-7777-2-2-2222-4-4-4444-6-6-6~-6-7-7-7~-7-2-2-2~-4-4-4~----|
|----------------------------2-2-2222-4-4-4~-4-----------------2-2-2~----|
      
|----------------|
|----------------|
|----------------|
|-2~-666-2~-444--|2X
|-2~-666-2~-444--|
|-0~-444-0~-222--|
     ...    ...
            GUITAR 1
if u do this shit with tremelo it sound amazingly cool. ur choice
|-------------------------------------------------|
|-------------------------------------------------|
|-4-6-8-4-8-6-4-6-8-6-8-6--4-4-4444-4-4-4444------|
|--------------------------4-4-4444-4-4-4444------|
|--------------------------2-2-2222-2-2-2222------|
|-------------------------------------------------|

|----------------|
|----------------|
|----------------|
|-222-666-444----|4X
|-222-666-444----|
|-000-444-222----|
  ... ... ...
                                  CHORUS 
|------------------------------------------------------------------------|
|------------------------------------------------------------------------|
|-4-4-4444-9-9-9999-4-4-4444-------------------9-9-9~-9-4-4-4~-----------|
|-4-4-4444-9-9-9999-4-4-4444-4-4-4444-6-6-6~-6-9-9-9~-9-4-4-4~-4-4-4~----|2X
|-2-2-2222-7-7-7777-2-2-2222-4-4-4444-6-6-6~-6-7-7-7~-7-2-2-2~-4-4-4~----|
|----------------------------2-2-2222-4-4-4~-4-----------------2-2-2~----|  

|---------------|
|---------------|
|---------------|
|-2~-888-2~-666-|2x
|-2~-888-2~-666-|
|-0~-666-0~-444-|
     ...    ...

guitar 1 slides from twelveth fret down here

|-------------------------------------------------|
|-------------------------------------------------|
|-------------------------------------------------|
|-2----8----2----6----2----6---66-66--------------|
|-2----8----2----6----2----6---66-66--------------|
|-0----6----0----4----0----8---44-44--------------|
  8x   8x   8x   8x   8x   8x   
[ Tab from: http://www.guitaretab.com/s/starting-line/43940.html ]
im wayyyy to fuckin lazy to do the chorus, u know it. ok i decided i can just cut and paste it so yeah.
                                   CHORUS
|------------------------------------------------------------------------|
|------------------------------------------------------------------------|
|-4-4-4444-9-9-9999-4-4-4444-------------------9-9-9~-9-4-4-4~-----------|
|-4-4-4444-9-9-9999-4-4-4444-4-4-4444-6-6-6~-6-9-9-9~-9-4-4-4~-4-4-4~----|2X
|-2-2-2222-7-7-7777-2-2-2222-4-4-4444-6-6-6~-6-7-7-7~-7-2-2-2~-4-4-4~----|
|----------------------------2-2-2222-4-4-4~-4-----------------2-2-2~----|  
 

   guitar 2
|------------|
|------------|
|------------| 
|-2~---------|
|-2~---------|
|-0~---------|                      
                   guitar 1
|-----------------------------------------------|
|--0--0--0--------------------------------------|
|-----------------------------------------------| 
|-----------------------------------------------| 4x
|-----------------------------------------------|
|-6--4--2---------------------------------------|
                 both guitars
|---------------------------------------------------|
|---------------------------------------------------|
|---------------------------------------------------| 
|-222-888-666-222-888-666-222-888-666-222-888-666---|
|-222-888-666-222-888-666-222-888-666-222-888-666---|
|-000-666-444-000-666-444-000-666-444-000-666-444---|
  ..  ..   ..  ..  ..  .. ..  ..  ..  ..  ..  ..   

|-----------------------------------------------|
|-----------------------------------------------|
|-----------------------------------------------| 
|-2--------8---------6--------------------------|4X
|-2--------8---------6--------------------------|
|-0--------6---------4--------------------------|

|---------------|
|---------------|
|---------------|
|-2~-888-2~-666-|2x
|-2~-888-2~-666-|
|-0~-666-0~-444-|
     ...    ...

                                   CHORUS
|------------------------------------------------------------------------|
|------------------------------------------------------------------------|
|-4-4-4444-9-9-9999-4-4-4444-------------------9-9-9~-9-4-4-4~-----------|
|-4-4-4444-9-9-9999-4-4-4444-4-4-4444-6-6-6~-6-9-9-9~-9-4-4-4~-4-4-4~----|2X
|-2-2-2222-7-7-7777-2-2-2222-4-4-4444-6-6-6~-6-7-7-7~-7-2-2-2~-4-4-4~----|
|----------------------------2-2-2222-4-4-4~-4-----------------2-2-2~----|  

|---------------------------------------------------|
|---------------------------------------------------|
|-4-4-4444-9-9-9999-4-4-4444----------4-4-4444~-----|
|-4-4-4444-9-9-9999-4-4-4444-4-4-4444-4-4-4444~-----|2X
|-2-2-2222-7-7-7777-2-2-2222-4-4-4444-2-2-2222~-----|
|----------------------------2-2-2222---------------|

~=HOLD NOTE
.=PALM MUTE

WELL THIS IS MY FIRST TAB, YIPPY I FINISHED, ANYWAYS, YEAH.
U FUCKIN ANAL SLUT BITCH WITH A STRAP-ON TIGHTED TO YOUR LEG.

JUST FELT LIKE SAYIN THAT.


BITCH
Related for Given The Chance tab
Advertisement will be closed in 10 seconds