Song name
# A B C D E F G H I J K L M N O P Q R S T U V W X Y Z

Starting Line - Song For Her tab

This song is in a different tuning but if you're too lazy, play it in drop D.

Intro
e|-----------------------------------------------|
B|----------------------------------------7------|
G|--7----7-----7-----7----6----7----7-----7------|
D|--x----x-----x-----x----x----x----x-----x------|
A|--5----7-----5-----5----4----x----x-----5------|
D|--0----0-----5-----0----0----9----7-----0------|

Verse
e|----------------------------------|
B|----------------------------------|
G|--7---7----7----7-----7-----------|
D|--4---x----x----x-----x-----x2----|
A|--5---5----7----x-----5-----------|
E|--0---5----0----9-----5-----------|

e|---------------------------------------------------------------|
B|---------------------------------------------------------------|
G|--7----7----7-----7------7------7----7----7-----7----7-----7---|
D|--4----x----x-----x------x------x----x----x-----x----x-----x---|
A|--5----5----7-----x------5------x----x----5-----x----x-----5---|
D|-------5----0-----9------5------7----9----5-----7----9-----5---|

e|------------------------------------------------------------|
B|--------------------------------------------------------7---|
G|--------------------------------------------------------7---|
D|-------0------0----0------0-----------------------------x---|
A|---------------------------------9-----9-----7-------7--7---|
D|--4-4----4-4---5-5---5-5-----9-9---9-9---7-7----7-7-----7---|

e|---------------------------------------|
B|---------------------------------------|
G|---------------------------------------|
D|-------0------0----0------0--7-7-7-7---|
A|-----------------------------7-7-7-7---|
D|--4-4----4-4---5-5---5-5-----7-7-7-7---|

Chorus
e|----------------------|
B|----------------------|
G|--7---7----7-----7----|
D|--x---x----x-----x----|
A|--5---x----x-----5----|
E|------7----9-----5----|

Verse 2
e|----------------------|
B|----------------------|
G|--7----7----7---------|
D|--x----x----x----x4---|
A|--x----x----5---------|
E|--9----7--------------|

Bridge
e|---------------------------------------------------------|
B|---------------------------------------------------------|
G|---------------------------------7---7---7---7---7---7---|
D|-4--5---9--7-----4--5--7----x2---x---x---x---x---x---x---|
A|-4--5---9--7-----4--5--7---------x---x---5---x---x---5---|
E|-4--5---9--7-----4--5--7---------9---7---5---9---7---5---|
Tap to rate this tab
# A B C D E F G H I J K L M N O P Q R S T U V W X Y Z