Song name
# A B C D E F G H I J K L M N O P Q R S T U V W X Y Z

Starting Line - Island Tab tab

-----------------------------------------------------------------------------
			     ISLAND - The Starting Line
-----------------------------------------------------------------------------
Tabbed by:B Scotty
Email:brianscott34@gmail.com

Tuning: Drop D / Half Step
Any questions / comments email me at brianscott34@gmail.com

Intro/Verse
Lead Guitar
eb|------------------------------------------------------------------------|
Bb|------------------------------------------------------------------------|
Gb|-6666666666666666666666666666666666666666666/99999999999/111111111111/9~|
Db|-xxxxxxxxxxxxxxxxxxxxxxxxxxxxxxxxxxxxxxxxxxx/xxxxxxxxxxx/xxxxxxxxxxxx/x~|
Ab|-5555555555555555555555555555555555555555555/77777777777/999999999999/7~|
Db|------------------------------------------------------------------------|

Intro/Verse
Rythm Guitar
eb|------------------------------------------------------------------------|
Bb|------------------------------------------------------------------------|
Gb|-----66666-----66666-----66666-----66666-------------------77777--------|
Db|-----00000-----00000-----00000-----00000-----5\77777-----7\99999------7/|
Ab|-----00000-----00000-----00000-----00000-----5\77777-----7\99999------7/|
Db|-----00000-----00000-----00000-----00000-----5\77777-----7\99999------7/|

Bridge
Lead Guitar
eb|-----0--------0--------0-------------------------------------|end on-xxx|
Bb|---7---7----7---7----7---------------------------------------|-------xxx|
Gb|-7--------7--------7----Repeat as needed---------------------|-------xxx|
Db|------------------------Let them ring------------------------|-------xxx|
Ab|-------------------------------------------------------------|-------xxx|
Db|-------------------------------------------------------------|-------xxx|

Bridge
Rythm Guitar
eb|-----------------------------------xxxxx--------------------------------|
Bb|-----------------------------------xxxxx--------------------------------|
Gb|-777\-----------------7~-----------xxxxx--------------------------------|
Db|-555\-----777---------5~------7\\\-xxxxx-----
                    
Tap to rate this tab
# A B C D E F G H I J K L M N O P Q R S T U V W X Y Z