Song name
# A B C D E F G H I J K L M N O P Q R S T U V W X Y Z

Starving Furniture Collection - Coffee And Tea tab

INTRO

e------------------------|
B-----------------------0|x3
G-2-2---2-2-2------------|
D-0-0---0-0-0--3h0-------|
A------------------3h0--0|
E------------------------|

e-----------------------|
B-----------------------|
G--0~------12-----------|
D--0~------12-----------|
A-----------------------|
E-----------------------|

VERSE                             FIRST ENDING            SECOND ENDING

e------------------------|   e--------------------| e-----------------|
B-----------------------0|x3 B--------------------| B-----------------|
G-2-2---2-2-2------------|   G-2~--2--2--2--------| G-3~--3--3--3-----|
D-0-0---0-0-0--3h0-------|   D-2~--2--2--2--------| D-3~--3--3--3-----|
A------------------3h0--0|   A--------------------| A-----------------|
E------------------------|   E--------------------| E-----------------|

CHORUS


e------------------------------------------------------------------|
B------------------------------------------------------------------|
G------------------------------------------------------------------|
D------------------------------------------------------------------|
A--55553------------55553-----------55553---------------55553------|
E-------3--1~113~333------356~665~555------3--1~113~333------356~--|

FIRST FILL

e------------------------|   e------------------|
B-----------------------0|x3 B------------------|
G-2-2---2-2-2------------|   G-0~-7/-9/-10/-----|
D-0-0---0-0-0--3h0-------|   D-0~-7/-9/-10/-----|
A------------------3h0--0|   A------------------|
E------------------------|   E------------------|

SECOND FILL

e------------------------|   e---------15~------|
B-----------------------0|x3 B---------15~------|
G-2-2---2-2-2------------|   G-0~--12-----------|
D-0-0---0-0-0--3h0-------|   D-0~--12-----------|
A------------------3h0--0|   A------------------|
E------------------------|   E------------------|

OUTRO

e-----------------------------------------------------------|
B-----------------------------------------------------------|
G-2-2--23-3--33-3-3-2~--2--------2-2--23-3-33/5~-2~--0------|
D-0-0--00-0--03-3-3-2~--2-2h3p2--0-0--00-0-03/5~-2~--0------|
A-----------------------------------------------------------|
E-----------------------------------------------------------|

INTRO
VERSE
FIRST ENDING
VERSE
SECOND ENDING
CHORUS
FIRST FILL
VERSE
FIRST ENDING
VERSE
SECOND ENDING
CHORUS
SECOND FILL
VERSE
FIRST ENDING
VERSE
SECOND ENDING
CHORUS
OUTRO

http://www.sfcband.zzl.org
Tap to rate this tab
 
# A B C D E F G H I J K L M N O P Q R S T U V W X Y Z