Song name
# A B C D E F G H I J K L M N O P Q R S T U V W X Y Z

Stary Olsa - Vojtieh tab

Riff 1:

E1----6--5-6-5---5------------------------------|
H2-8-----------8---6--6-8-10-6--8-10-8-6-8------|
G3----------------------------------------7-----|
D4----------------------------------------------|
A5----------------------------------------------|
E6----------------------------------------------|

E1----6--5-6-5---5------------------------------|
H2-8-----------8---6--6-8-10-6--8-10-8-6-8------|
G3----------------------------------------7-----|
D4----------------------------------------------|
A5----------------------------------------------|
E6----------------------------------------------|

Riff 2:

E1-----6-6-5-6-5---5--------------------------------|
H2-8-8-----------8---6--6-6-10-10--8-10-8-6-8-------|
G3--------------------------------------------7-----|
D4--------------------------------------------------|
A5--------------------------------------------------|
E6--------------------------------------------------|

E1-----6-6-5-6-5---5--------------------------------|
H2-8-8-----------8---6--6-6-10-10--8-10-8-6-8-------|
G3--------------------------------------------7-----|
D4--------------------------------------------------|
A5--------------------------------------------------|
E6--------------------------------------------------|

Normal tuning.



http://staryolsa.com/pol/index.shtml
Tap to rate this tab
# A B C D E F G H I J K L M N O P Q R S T U V W X Y Z