Song name
# A B C D E F G H I J K L M N O P Q R S T U V W X Y Z

State Champs - Stick Around tab

Stick Around

Drop D
Figure out the strumming pattern

E:----------------------------------------------------------|
B: 555----55--55--555---55--55--555--55--55--5555555555555--|
G: 666----66--66--666---66--66--666--66--66--666666(p)4(h)6-| (x3)
D: 777----77--44--000---00--77--777--77--44--0000000000000--|
A: 444----44--44--000---00--00--444--44--44--0000000000000--|
D: 444----44--44--000---00--00--444--44--44--0000000000000--|

E: -------------------------|
B: -------------------------|
G: 444----44-4--4--7-7-7774-|
D: 222----22-2--2--0-0-0002-|
A: 222----22-2--2--0-0-0002-|
D: 222----22-2--2--0-0-0002-|

E: 00000----------------------------------------|
B: 00000----------------------------------------|
G: 22222----7777--7--7--666-6-9-444-9-6-7777--4-| (x2)
D: 22222----0000--0--0--444-4-7-222-7-4-0000--2-|
A: 00000----0000--0--0--444-4-7-222-7-4-0000--2-|
D: ---------0000--0--0--444-4-7-222-7-4-0000--2-|

E:----------------------------------------------------------|
B: 555----55--55--555---55--55--555--55--55--5555555555555--|
G: 666----66--66--666---66--66--666--66--66--666666(p)4(h)6-| (x2)
D: 777----77--44--000---00--77--777--77--44--0000000000000--|
A: 444----44--44--000---00--00--444--44--44--0000000000000--|
D: 444----44--44--000---00--00--444--44--44--0000000000000--|


E: -------------------------|
B: -------------------------|
G: 444----44-4--4--7-7-7774-|
D: 222----22-2--2--0-0-0002-|
A: 222----22-2--2--0-0-0002-|
D: 222----22-2--2--0-0-0002-|

E: 00000----------------------------------------|
B: 00000----------------------------------------|
G: 22222----7777--7--7--666-6-9-444-9-6-7777--4-| (x2)
D: 22222----0000--0--0--444-4-7-222-7-4-0000--2-|
A: 00000----0000--0--0--444-4-7-222-7-4-0000--2-|
D: ---------0000--0--0--444-4-7-222-7-4-0000--2-|


E: -----------------------|
B: -----------------------|
G: 6666--4444--7777--4444-|
D: 4444--2222--0000--4444-|
A: 4444--2222--0000--4444-|
D: 4444--2222--0000--2222-|

E:----------------------------------------------------------|
B: 555----55--55--555---55--55--555--55--55--5555555555555--|
G: 666----66--66--666---66--66--666--66--66--666666(p)4(h)6-|
D: 777----77--44--000---00--77--777--77--44--0000000000000--|
A: 444----44--44--000---00--00--444--44--44--0000000000000--|
D: 444----44--44--000---00--00--444--44--44--0000000000000--|

E: 00000----------------------------------------|
B: 00000----------------------------------------|
G: 22222----7777--7--7--666-6-9-444-9-6-7777--4-| (x3)
D: 22222----0000--0--0--444-4-7-222-7-4-0000--2-|
A: 00000----0000--0--0--444-4-7-222-7-4-0000--2-|
D: ---------0000--0--0--444-4-7-222-7-4-0000--2-|
Tap to rate this tab
# A B C D E F G H I J K L M N O P Q R S T U V W X Y Z