Song name
# A B C D E F G H I J K L M N O P Q R S T U V W X Y Z

State Champs - Elevated tab

Elevated  - State Champs

Intro
E|-------1-----------1-----------1---------------------------|
B|-----1---1-------1---1-------1---1-------1-----------------|
G|-2-3---------2-3---------2-3---------2-3-------------------| 
D|-----------------------------------------------------------|
A|-----------------------------------------------------------|
D|-----------------------------------------------------------|
                                                         
E|-------1-----------1-----------1-----------1------------------|
B|-----1---1-------1---1-------1---1-------1---1----------------|
G|-2-3---------2-3---------2-3---------2-3---------------x2-----| 
D|--------------------------------------------------------------|
A|--------------------------------------------------------------|
D|--------------------------------------------------------------|
                                                                      
E|-------1-----------1-----------1------------------------------|
B|-----1---1-------1---1-------1---1----------------------------|
G|-2-3---------2-3---------2-3---------2-----------------333----| 
D|------------------------------------------------333333-333----|
A|------------------------------------------------333333-111----|
D|------------------------------------------------333333--------|
                                                  ......

Verse
E|---------------------------------------------------------|
B|---------------------------------------------------------|
G|-33-3-3-3-3---33-3-3-3-3---------------------------------| x2
D|-33-3-3-3-3---33-3-3-3-3---33-3-3-3-3---33-3-3-3-3-------|
A|-11-1-1-1-1---11-1-1-1-1---33-3-3-3-3---33-3-3-3-3-------|
D|---------------------------33-3-3-3-3---33-3-3-3-3-------|
   ..   .       ..   .       ..   .       ..   .

E|-----------------------------------------------------------------|
B|-----------------------------------------------------------------|
G|--------------33333333-----------------------33333333-55555555---| 
D|-3-2-00000000-33333333-33333333-3-2-00000000-33333333-55555555---|
A|-3-2-00000000-11111111-33333333-3-2-00000000-11111111-33333333---|
D|-3-2-00000000----------33333333-3-2-00000000---------------------|

Chorus
E|-----------------------------------------------------------------|
B|-----------------------------------------------------------------|
G|--999-101010-55555555---999-101010-121212121212--1010------------| 
D|--xxx-x-x-x--xxxxxxxx---xxx-x-x-x--x-x-x-x-x-x---x-x-------------|
A|--777-8-8-8--33333333---777-8-8-8--101010101010--8-8-------------|
D|-----------------------------------------------------------------|

E|-----------------------------------------|
B|-----------------------------------------|
G|--999-101010-55555555-999999-5555555-----| x2
D|--xxx-x-x-x--xxxxxxxx-xxxxxx-xxxxxxx-----|
A|--777-8-8-8--33333333-777777-3333333-----|
D|-----------------------------------------|

Bridge
E|-----------------------------------------------|
B|-----------------------------------------------|
G|-101010-555-101010-555-1010--9999999999999999--| x2
D|-x-x-x--xxx-x-x-x--xxx-x-x---xxxxxxxxxxxxxxxx--|
A|-8-8-8--333-8-8-8--333-8-8---7777777777777777--|
D|-----------------------------------------------|

E|-131313-121212----------------------------------------------------------|
B|---------------101010-131313-151515-------------------------------------|
G|-------------------------------------10--10--10--10--9--9--9--9---------| x2
D|---------------------------------------10--10--10--10-10-10-10-10-------|
A|------------------------------------------------------------------------|
D|------------------------------------------------------------------------|

E|---------------------------------------------------------------------|
B|---------------------------------------------------------------------|
G|-99999999-10101010-12121212-10101010101010101010101010101010---------| 
D|-xxxxxxxx-x-x-x-x--x-x-x-x--x-x-x-x-x-x-x-x-x-x-x-x-x-x-x-x----------|
A|-77777777-8-8-8-8--10101010-8-8-8-8-8-8-8-8-8-8-8-8-8-8-8-8----------|
D|---------------------------------------------------------------------|

E|----------------------------------------------------------------------------|
B|----------------------------------------------------------------------------|
G|-9999-10101010-12121212-101010101010-121212121212-9999-10101010-12121212-9~-| 
D|-xxxx-x-x-x-x--x-x-x-x--x-x-x-x-x-x--x-x-x-x-x-x--xxxx-x-x-x-x--x-x-x-x--x--|
A|-7777-8-8-8-8--10101010-8-8-8-8-8-8--101010101010-7777-8-8-8-8--10101010-7~-|
D|----------------------------------------------------------------------------|

E|----------------------|
B|----------------------|
G|-3---5----------------| 
D|-3-3-5------33-3-33---|
A|-1-3-3------33-3-33---|
D|---3--------33-3-33---|

Outro
E|-----------------------------------|
B|-----------------------------------|
G|-101010-555-101010-555-10101010~---| 
D|-x-x-x--xxx-x-x-x--xxx-x-x-x-x-----|
A|-8-8-8--333-8-8-8--333-8-8-8-8~~---|
D|-----------------------------------|

Tap to rate this tab
 
# A B C D E F G H I J K L M N O P Q R S T U V W X Y Z