Song name
# A B C D E F G H I J K L M N O P Q R S T U V W X Y Z

State Lines - Driver tab

----------------------------------------------------------------------------
                             DRIVER - State Lines
---------------------------------------------------------------------------
Tabbed by: Mean Mr Mustard
Email: Gotchristo@comcast.net

Good song, shouldnt be hard to figure out, just follow the chords, play them as 
powerchords or or open chords. The lead parts are all at the bottom tabbed out, enjoy.

Link - http://statelines.bandcamp.com/releases

Tuning: Half-step down


Intro: D

D                G         D                     G
I need to hold myself at a standard, stay on the outside looking in.
 
VERSE:
  D                      A            G  
I called your phone at a quarter past 11, just to say goodnight and I hope
D           A                G
youre doing fine. I hope you think about me from time to time. 


INTERLUDE:
D         G      [x2]

VERSE 2:
D          A             G
Its 4am im burning every ounce of energy out of this 
D                A               G
light bulb in my basement thats accompanying me. 

BRIDGE: [x4]
Em    D            G
Id be lying to say everything is the same. 


INTERLUDE 2:
D        G          [x2]


CHORUS: [x4]
D       G           A        G   
One day youre gonna find yourself.





   INTERLUDE:
eb|-------------------------|-------------------------|
Bb|------3-------3------3-3-|------3-------3------3-3-|
Gb|---2h4---2-2h4---2h4-----|---2h4---2-2h4---2h4-----|
Db|-------------------------|-------------------------|
Ab|-------------------------|-------------------------|
Eb|-------------------------|-------------------------|
  |
  |   D                         G
eb|-------------------------|-------------------------|
Bb|---7--7--7--7--7--7--7---|-------------------------|
Gb|---7--7--7--7--7--7--7---|---4--4--4--4--4--4--4---|
Db|---7--7--7--7--7--7--7---|---5--5--5--5--5--5--5---|
Ab|---5--5--5--5--5--5--5---|---5--5--5--5--5--5--5---|
Eb|-------------------------|---3--3--3--3--3--3--3---|



VERSE 2: (comes in halfway through)
   D                      A       G
eb|-------2-------2-------2-------------2-------2-------2---------|
Bb|-----3-----3-------3-------3--3----3-----3-------3-------3---3-|
Gb|-2h4---------------------------2h4-----------------------------|
Db|---------------------------------------------------------------|
Ab|---------------------------------------------------------------|
Eb|---------------------------------------------------------------|




   INTERLUDE 2: [x2]
    D                      G
eb|---------2---0------0----------------|
Bb|-----3-----------3------3------------|
Gb|-2-----------------------------------|
Db|-------------------------------------|
Ab|-------------------------------------|
Eb|-------------------------------------|
Tap to rate this tab
# A B C D E F G H I J K L M N O P Q R S T U V W X Y Z