Song name
# A B C D E F G H I J K L M N O P Q R S T U V W X Y Z

State Lines - Garvey chords

Highlighted       Show chord diagrams
----------------------------------------------------------------------------
                             GARVEY - State Lines
----------------------------------------------------------------------------
Tabbed by: Mean Mr Mustard
Email: Gotchristo@comcast.net

Great song to play with just an acoustic. Since the vocals are so loud in the 
song, it was hard to hear exactly what he was playing at some points but this is close enough.

Linky - http://statelines.bandcamp.com/releases

Tuning: Half-step down


VERSE:
G       D        Em       
One day you will die, 
     C         G             Am
know I wont be far from your side. 
G            D         Em         
My eyes will flood and pour as my 
C          G              Am
tears pour rivers from my cheeks to the floor. 


Riff:
eb|-----------------------------------|
Bb|-----------------------------------|
Gb|----------------------------0------|
Db|--------0---------0-----0h2--------|
Ab|-----2---------2-----3-------------|
Eb|--0--------3-----------------------|



CHORUS:
G           Am       C           
But I think Ill understand how the 
G         Am                  C
God you believe in could make such a demand to 
Em       G              C           Em      C             Am           G
have you sitting by the side of his hand in stitches, the way you left me. 


VERSE:
G           D      Em
And one day Ill be fine, 
  C            G              Am
until then Ill wait with both my hands tied. 
   G         D     Em
Im a blindfolded boxer. 
   C       G            Am
Im making noise just to keep myself heard. 


Riff:
eb|-----------------------------------|
Bb|-----------------------------------|
Gb|----------------------------0------|
Db|--------0---------0-----0h2--------|
Ab|-----2---------2-----3-------------|
Eb|--0--------3-----------------------|



CHORUS:
             G       Am   C
Youve got to try and understand why these 
G             Am           C
wolves cry at night in the holiest fashion. 
         Em      G               C             Em 
See, our darkest moments seem to shed the most light, 
        C           Am          G
so move forward and try to make right. 


VERSE:
G       D        Em
One day well say bye, 
C            G            Am
know on that day a part inside me will die. 


CHORUS:
           Em           G                C          Em
Cause this heart doesnt beat as fast without you Garvey, hold me 
C          Am        G
to it when you go to sleep.

End on G
Tap to rate this tab
# A B C D E F G H I J K L M N O P Q R S T U V W X Y Z