Song name
# A B C D E F G H I J K L M N O P Q R S T U V W X Y Z

State Lines - Cancer tab

-------------------------------------------------------------------------
                             CANCER - STATE LINES
--------------------------------------------------------------------------
Tabbed by: Mean Mr Mustard
Email: gothcristo@comcast.net

This is a great band, so I figured Id try to figure some of their songs out. The 
chords are at the top here if you want to strum along to it, the tab is at the bottom.

Here is a link: http://statelines.bandcamp.com/releases

Tuning: Half-step down


D       A | G     A |     x4


WITH VERSE LEAD:
D                   A      G          A
We barely knew each others names, yet talked for hours. 
D                               A        G             A
Sharing drinks on the back porch on that cold december day. 
D             A         G               A
And its funny how times flies when your lost in a 
D               A   G            
pair of hazel eyes, watching the sunrise. 


WITH PRE-CHORUS LEAD:
F#m              G                  A                D
Now Im taking an hour drive to this hospital just to watch you
 (D)           A                 G
die and I cant grip this steering wheel. 
F#m             G           A                  D
And Id dare the optimist to find the good that came out of this 
(D)     A            G
come Im at a loss for words. 


CHORUS:
Bm               G      D                A
And I hear those angels knocking at your door sweety, 
Bm            G   D            A
dont let them in. No, dont you dare open. 
        Bm                 G                  D                A
Are you tired of breathing heavily when youre laying in bed at night, 
                Bm                G               D
trying to sleep? Well ill let you go if youre suffering. 


D       A | G     A |     x2


WITH VERSE LEAD:
D                     A        G     A      
The weight is sliding off your bones and your 
D                        A         G                  A
hairs slowly getting thin, leaving wrinkles in your skin. 
D                   A         G       A
The doctors said go pack your things, so we 
D                       A             G             
found you a wooden home, to spend the rest of your days alone. 


WITH PRE-CHORUS LEAD:
F#m              G                  A                D
Now Im taking an hour drive to this hospital just to watch you
 (D)           A                 G
die and I cant grip this steering wheel. 
F#m             G           A                  D
And Id dare the optimist to find the good that came out of this 
(D)     A            G
come Im at a loss for words. 


CHORUS:
Bm               G      D                A
And I hear those angels knocking at your door sweety, 
Bm            G   D            A
dont let them in. No, dont you dare open. 
        Bm                 G                  D                A
Are you tired of breathing heavily when youre laying in bed at night, 
                Bm                G               D
trying to sleep? Well ill let you go if youre suffering. 

D       A         F#m


WITH BRIDGE LEAD:
G       A     Bm     G        A               Bm
I spent hours up,    building courage just to pull this plug. 
G       A       Bm       G        A      Bm    
I spent nights awake,    thinking of the last words to say. 


OUTRO:
D (p.m.)                     D               
It was twelve oclock when we got that call.

G            A    D



VERSE LEAD
e|------------------------------------------------------------|
B|-------------7-------------7b8r7-------------7-------7b8r7--|
G|------7------------7--------------------7--------7----------|
D|-7---------------------------------5------------------------|
A|------------------------------------------------------------|
E|------------------------------------------------------------|
 |
 | D                           A     G                  A
e|------------------------------------------------------------|
B|------------------------------------------------------------|
G|----11--------11-------11------6------4------4-----4----6---|
D|----12--------12-------12------7------5------5-----5----7---|
A|----12--------12-------12------7------5------5-----5----7---|
E|-10--------10-------10----/--5-----3-------3-----3----5---/-|



PRE-CHORUS LEAD
eb|--------------------------------------------------------------|
Bb|--------------------------------------------------------------|
Gb|-2-2--2/4-4--4/6-6--6/7--7---7--7--7-/11-11--11/7-7--7-7-7--7-|
Db|--------------------------------------------------------------|
Ab|--------------------------------------------------------------|
Eb|--------------------------------------------------------------|
  |
  | F#m    G      A      D        (D)       A      G
eb|--------------------------------------------------------------|
Bb|--------------------------------------------------------------|
Gb|-2-2--2-4-4--4-6-6--6-11-11----11-11-----6-6--6-4-4--4-4-4--4-|
Db|-4-4--4-5-5--5-7-7--7-12-12----12-12-----7-7--7-5-5--5-5-5--5-|
Ab|-4-4--4-5-5--5-7-7--7-12-12----12-12-----7-7--7-5-5--5-5-5--5-|
Eb|-2-2--2-3-3--3-5-5--5-10-10----10-10--10-5-5--5-3-3--3-3-3--3-|

eb|--------------------------------------------------------------|
Bb|--------------------------------------------------------------|
Gb|-2-2--2/4-4--4/6-6--6/7--7--7-/11-11--11/9-9--9/7-7--7-7-7--7-|
Db|--------------------------------------------------------------|
Ab|--------------------------------------------------------------|
Eb|--------------------------------------------------------------|
  |
  | F#m    G      A      D        (D)       A      G
eb|--------------------------------------------------------------|
Bb|--------------------------------------------------------------|
Gb|-2-2--2-4-4--4-6-6--6-11-11----11-11-----6-6--6-4-4--4-4-4--4-|
Db|-4-4--4-5-5--5-7-7--7-12-12----12-12-----7-7--7-5-5--5-5-5--5-|
Ab|-4-4--4-5-5--5-7-7--7-12-12----12-12-----7-7--7-5-5--5-5-5--5-|
Eb|-2-2--2-3-3--3-5-5--5-10-10----10-10--10-5-5--5-3-3--3-3-3--3-|



   BRIDGE:
eb|----5-------5-------5-------5----|
Bb|-------7-------7-------7-------7-|
Gb|-7-------6-------7-------7-------|
Db|---------------------------------|
Ab|---------------------------------|
Eb|---------------------------------|
  | G       A       Bm
eb|---------------------------------|
Bb|---------------------------------|
Gb|---------------------------------|
Db|-5-5-5-5-7-7-7-7-9-9-9-9-9-9-----|
Ab|-5-5-5-5-7-7-7-7-9-9-9-9-9-9-----|
Eb|-3-3-3-3-5-5-5-5-7-7-7-7-7-7/5-5-|

Tap to rate this tab
# A B C D E F G H I J K L M N O P Q R S T U V W X Y Z