Song name
# A B C D E F G H I J K L M N O P Q R S T U V W X Y Z

State Lines - For The Ears tab

-----------------------------------------------------------------------------
                             FOR THE EARS - State Lines
-----------------------------------------------------------------------------

Tuning: Half step down

This is off the new album, probably the most straightforward on the album. It shouldn't 
be hard to play, just get the most comfortable fingering down (I use my thumb for the 
top string) and play in triplet feel


Intro/Verse:
eb|--------6-------6-------6-------6--------6-------6-------6-------6--|
Bb|----7-------7-------7-------7--------7-------7-------7-------7------|
Gb|--------------------------------------------------------------------|
Db|-4---4---4---4---4---4---4---4--------------------------------------|
Ab|----------------------------------6---6---6---6---------------------|
Eb|--------------------------------------------------7---7---7---7-----|


Chorus:
eb|--------6-------6-------6-------6-------7-------7-------7-------7--|
Bb|---7--------7-------7-------7-------7-------7-------7-------7------|
Gb|---------------------------------4---4---4---4---4---4---4---4-----|
Db|-------------------------4---4-------------------------------------|
Ab|-4---4---4---4---6---6---------------------------------------------|
Eb|-------------------------------------------------------------------|

eb|--------7-------7-------7-------7-------6-------6-------6-------6--|
Bb|----7-------7-------7-------7-------7-------7-------7-------7------|
Gb|-------------------------------------------------------------------|
Db|-------------------------------------------------------------------|
Ab|-7---7---7---7---7---7---7---7-------------------------------------|
Eb|---------------------------------7---7---7---7---7---7---7---7-----|


Lead line:
eb|--14---14---14--11---11---11--9---9---9--6---6---6---|
Bb|-----------------------------------------------------|
Gb|--11---11---11--8----8----8---6---6---6--------------|
Db|-----------------------------------------8---8---8---|
Ab|-----------------------------------------------------|
Eb|-----------------------------------------------------|


End on this:
eb|-6----------|
Bb|-7----------|
Gb|-x----------|
Db|-4----------|
Ab|------------|
Eb|------------|
Tap to rate this tab
 
# A B C D E F G H I J K L M N O P Q R S T U V W X Y Z