State Of Alert - Draw Blank tab

Riff 1 (Intro and Verse)
E--------------------|
B--------------------|
G--------------------|
D--------------------|
A---9-9-7-7-9-9-7-7--|
E---7-7-5-5-7-7-5-5--|

Riff 2 (Chorus)
E------------------------------|
B------------------------------|
G------------------------------|
D------------------------------|
A---5--7--5--7--5--7--5-7-7-7--|
E---3--5--3--5--3--5--3-5-5-5--|

The solo is impossible to tab because they are just random ghost notes played with 
tremolo picking

Riff 1 x6
Riff 2 x1
Riff 1 x4
Riff 2 x1
Solo
Riff 2 x1
Riff 1 x4
Riff 2 x1

end with
G-----
D-----
A--9--
E--7--
Tap to rate this tab
 
# A B C D E F G H I J K L M N O P Q R S T U V W X Y Z