Song name
# A B C D E F G H I J K L M N O P Q R S T U V W X Y Z

State Of Alert - Public Defender tab

-------------------------------------------------------------------------------
Public Defender - S.O.A.

http://www.dischord.com/band/stateofalert
-------------------------------------------------------------------------------

By: Jeff(Cucumber1990) 

Guitar: Michael Hampton

Intro/Verse  
E|--------------------|
B|--------------------|
G|--------------------|
D|--2-4-4----4-4-4----|
A|--2-4-4----4-4-4----|
E|--0-2-2----2-2-2----|

Chorus
E|--------------------|--------------------|
B|--------------------|--------------------|
G|--2-2-2-2--5-5-5-5--|--------------------|
D|--2-2-2-2--5-5-5-5--|--5-5-5-5--5-5-5-5--|
A|--0-0-0-0--3-3-3-3--|--5-5-5-5--5-5-5-5--|
E|--------------------|--3-3-3-3--3-3-3-3--|

Bridge/Final Chorus
E|--------------------|--------------------||
B|--------------------|--------------------||
G|--4-4-4-4-----------|--2-2-2-2--2-2-2-2--||
D|--4-4-4-4--4-4-4-4--|--2-2-2-2--2-2-2-2--||
A|--2-2-2-2--4-4-4-4--|--0-0-0-0--0-0-0-0--||
E|-----------2-2-2-2--|--------------------||

End With A5
E|-----|
B|-----|
G|--2--|
D|--2--|
A|--0--|
E|-----|

Intro/Verse x 16
Chorus x 4
Intro/Verse x 12
Chorus x 4
Intro/Verse x 8
Bridge/Final Chorus x 8
===============================================================================
Tap to rate this tab
# A B C D E F G H I J K L M N O P Q R S T U V W X Y Z