Song name
# A B C D E F G H I J K L M N O P Q R S T U V W X Y Z

State Of Emergency - Suits Against States tab

Help us improve GuitareTab! Take a short survey!
.= pm

intro
----------------------------------------------------------
----------------------------------------------------------
----------------------------------------------------------
-2-2--------2-2--------2-2--2-2-2-2-2-2-2-2-2-2--2--------
-2-2let ring2-2let ring2-2--2-2-2-2-2-2-2-2-2-2--2let ring
-0-0--------0-0--------0-0--0-0-0-0-0-0-0-0-0-0--0--------
 . .        . .        . .  . . . . . . . . . .


verse
----------------------------------------------------------
----------------------------------------------------------
----------------------------------------------------------
-5-5-5-5----7-7-7-7----2-2-2-2----4-4-4-4----------------- X8
-5-5-5-5----7-7-7-7----2-2-2-2----4-4-4-4-----------------
-3-3-3-3----5-5-5-5----0-0-0-0----2-2-2-2-----------------

----------------------------------------------------------
----------------------------------------------------------
----------------------------------------------------------
-5-5-5-5----7-7-7-7----2-2-2-2----4-4-4-4----------------- X2
-5-5-5-5----7-7-7-7----2-2-2-2----4-4-4-4-----------------
-3-3-3-3----5-5-5-5----0-0-0-0----2-2-2-2-----------------
 . . . .    . . . .    . . . .    . . . .
----------------------------------------------------------
----------------------------------------------------------
----------------------------------6-6-6-6-----------------
-5-5-5-5----7-7-7-7----6-6-6-6----6-6-6-6----------------- X2
-5-5-5-5----7-7-7-7----6-6-6-6----4-4-4-4-----------------
-3-3-3-3----5-5-5-5----4-4-4-4----------------------------
                       . . . .

solo play as fast as possible
---------------------------------------------
---------------------------------------------
---------------------------------------------
-----0-2-2-1--------------------------------- x 2
-0-2---------2-11111--2-4--5-3-4-3-0---------
----0---0---0--------------------------------

start song from the begining again

thnx for looking at our tab check out our site www.angelfire.com/punk4/soe/
Related for Suits Against States tab