Song name
# A B C D E F G H I J K L M N O P Q R S T U V W X Y Z

State Of Shock - Money Honey tab

intro to *money honey* by *stare of shock*


drop c




---1-----------------|    |--/10-----------------|    |--5----------------|   
-----1---------------|    |------10--------------|    |----5--------------|
-------1-4-5-~-------|    |---------10-12-10-~---|    |------5-7-9-~------|
---------------------|    |----------------------|    |-------------------|
---------------------|    |----------------------|    |-------------------|
---------------------|    |----------------------|    |-------------------|






--0-----------------|    keep doing that for like four times ^_^
----0---------------|    
------4-5p4-5p4-----|    thats the intro to that awesome song . 
--------------------|
--------------------|
--------------------|



Sorry ill try and get the rest to you guys ^_^



Tap to rate this tab
 
# A B C D E F G H I J K L M N O P Q R S T U V W X Y Z