Song name
# A B C D E F G H I J K L M N O P Q R S T U V W X Y Z

State Radio - The Waitress tab

The Waitress
By State Radio

i tabbed this by ear with one of their live versions then with the studio and i believe 
both tuned down a half step.


Intro/Bridge
e|---------------------------------------------------|
B|---------------------------------0h2-0h2-0---------|
G|-------------------------------------------2-------|
D|---4---2h4---4---2h4---4---2h4---------------4-----|
A|---4---------4---------4---------------------------|
E|---2---------2---------2---------------------------|


Verse(play muted)
e|---2-----5-----7-----2-----|
B|---2-----5-----9-----2-----|
G|---2-----6-----9-----2-----|
D|---4-----7-----9-----4-----|
A|---4-----7-----7-----4-----|
E|---2-----5-----------2-----|


Chorus
e|---5-----4-----2-----2-----5-----4-----7-----7-----|
B|---5-----5-----2-----2-----5-----5-----9-----9-----|
G|---6-----6-----2-----2-----6-----6-----9-----9-----|
D|---7-----6-----4-----4-----7-----6-----9-----9-----|
A|---7-----4-----4-----4-----7-----4-----7-----7-----|
E|---5-----------2-----2-----5-----------------------|
Tap to rate this tab
 
# A B C D E F G H I J K L M N O P Q R S T U V W X Y Z