Song name
# A B C D E F G H I J K L M N O P Q R S T U V W X Y Z

State Radio - Mansin Humanity tab

MANSIN HUMANITY
State Radio
Let It Go
Tabbed by Evan Johns
Standard tuning

This is the whole intro to the song, listen to the recorded version and you should 
get the hang of it.

e|--------------------------------------------------0------------|
B|--------------------------------------------------1------------|
G|--------------------------------------------------2------------|
D|-------2-------2-------0-------0-------0-------0--2------------|
A|-------2-------2-------0-------0-------2-------2--0------------|
E|-0-0-0-0-0-0-0-0-2-2-2-2-2-2-2-2-3-3-3-3-3-3-3-3--0------------|

e|---------------------------------------------------------------|
B|---------------------------------------------------------------|
G|---------------------------------------------------------------|
D|---2-0--0---2-2---0--------------------------------------------|
A|-------2--------2---2------------------------------------------|
E|-0--------0-----------3-2-0------------------------------------|

e|---------------------------------------------------------------|
B|---------------------------------------------------------------|
G|---------------------------------------------------------------|
D|-2-0--0---2-2---0----------------------------------------------|
A|-----2--------2---2--------------------------------------------|
E|--------0-----------3-2-3--------------------------------------|

e|---------------------------------------------------------------|
B|---------------------------------------------------------------|
G|-------0---------------------------2---------------------------|
D|-0---0---0-0---0---0h2h0-----2-0-2-------------0h1-------------|
A|---2---------2---2-------0-0---------0-0-1-2-------------------|
E|---------------------------------------------3-----------------|

e|---------------------------------------------------------------|
B|---------------------------------------------------------------|
G|---------------------------------------------------------------|
D|-2-22---2------------------------------------------------------|
A|-2-22---2-------0---------2----------0-------------------------|
E|-0-00-3-0-2-2-2---2h3-3-3---3--2-2-2---2-2---------------------|

e|---------------------------------------------------------------|
B|---------------------------------------------------------------|
G|---------------------------------------------------------------|
D|-2-22---2------------------------------------------------------|
A|-2-22---2-------0-------2----------0---------------------------|
E|-0-00-3-0-2-2-2---2h3-3---3--2-2-2---2-2-----------------------|


| /  slide up
| \  slide down
| h  hammer-on
| p  pull-off
| ~  vibrato
| +  harmonic
| x  Mute note
Tap to rate this tab
# A B C D E F G H I J K L M N O P Q R S T U V W X Y Z